21st Century

Intro: 2x
e|-1--1--x-1-1-|-3--3--x-3-3-|
B|-3--3--x-3-3-|-3--3--x-3-3-| 
G|-2--2--x-2-2-|-3--3--x-3-3-|
D|-------------|-------------|
A|-------------|-------------|	
E|-------------|-------------|	
						
e|-1--1--x-1-1-|-3---15-15-15-15-|	
B|-1--1--x-1-1-|-3---15-15-15-15-|	
G|-2--2--x-2-2-|-3---15-15-15-15-|	
D|-------------|-----------------|	
A|-------------|-----------------|	
E|-------------|-----------------|

Verse 1:
all the creatures on the beaches
e|-1--1--x-1-1-|-3--3--x-3-3-|
B|-3--3--x-3-3-|-3--3--x-3-3-| 
G|-2--2--x-2-2-|-3--3--x-3-3-|
D|-------------|-------------|
A|-------------|-------------|	
E|-------------|-------------|	
Makin' waves in the motion picture 
e|-1--1--x-1-1-|-3---15-15-15-15-|	
B|-1--1--x-1-1-|-3---15-15-15-15-|	
G|-2--2--x-2-2-|-3---15-15-15-15-|	
D|-------------|-----------------|	
A|-------------|-----------------|	
E|-------------|-----------------|

won't you keep this in between us
search and seizure wake up Venus

Verse 2:
the dollar bill will mentally ill bill
e|-1--1--x-13-13-|-3--3--x-3-3-|
B|-3--3--x-15-15-|-3--3--x-3-3-| 
G|-2--2--x-14-14-|-3--3--x-3-3-|
D|---------------|-------------|
A|---------------|-------------|	
E|---------------|-------------|
Mom and dad take your don't be sad pill 
e|-1--1--x-1-1-|-3---15-15-15-15-|	
B|-1--1--x-1-1-|-3---15-15-15-15-|	
G|-2--2--x-2-2-|-3---15-15-15-15-|	
D|-------------|-----------------|	
A|-------------|-----------------|	
E|-------------|-----------------|
 
turn the screw and twist my language
e|-1--1--x-1-1-|-3--3--x-3-3-|
B|-3--3--x-3-3-|-3--3--x-3-3-| 
G|-2--2--x-2-2-|-3--3--x-3-3-|
D|-------------|-------------|
A|-------------|-------------|	
E|-------------|-------------|
Don't forsake me i'm contagious 
e|-1--1---x-1-1-|-----------15-15-15-|
B|-1--1---x-1-1-|-11-11-11--15-15-15-|
G|-2--2---x-2-2-|-12-12-12-----------|
D|--------------|-12-12-12-----------|
A|--------------|--------------------|
E|--------------|--------------------|

Chorus:
There's a reason for the 21st Centu 
e|--------------|--------------|
B|--------------|--------------|
G|-7---7--3---3-|--------5---5-|
D|-7---7--3---3-|-3---3--5---5-|
A|-5—--5—-1---1-|-3---3--3---3-|
E|--------------|-1---1--------|
ry ! not to sure but I know that its ment to 
e|--------------|--------------|
B|--------------|--------------|
G|-7---7--3---3-|--------5---5-|
D|-7---7--3---3-|-3---3--5---5-|
A|-5—--5—-1---1-|-3---3--3---3-|
E|--------------|-1---1--------|
be ! Hey ! That its ment to  
e|--------------|--------------|
B|--------------|--------------|
G|-7---7--3---3-|--------5---5-|
D|-7---7--3---3-|-3---3--5---5-|
A|-5—--5—-1---1-|-3---3--3---3-|
E|--------------|-1---1--------|
be
e|--------------|
B|--------------|
G|-7---7--3---3-|
D|-7---7--3---3-|
A|-5—--5—-1---1-|
E|--------------|

e|----------------------|----------------------|
B|-4-4-4-4--4-4-4-4--4--|-4-4-4-4--3-3-3-3—-3--|
G|-3-3-3-3--3-3-3-3--3--|-3-3-3-3--3-3-3-3—-3--|	
D|----------------------|----------------------|
A|----------------------|----------------------|
E|----------------------|----------------------|


SOLO in D penta minor: 
e|----10------------------------------------------------------------------------|
B|------10-b13------------------------------------------------------------------|
G|-b12-----------b12rp10—b12-------------------------(b)10----------------------|
D|--------------------------12--10-12-------------10------12-------------7------|
A|-------------------------------------10----10/12-----------10-8-8h10-8---8----|
E|----------------------------------------13---------------------------------10-|


Verse 3:
It's my favourite combination
coming down with the favoured nations
deep rotation mutilation
learn to give and take dictation

  OH            OH OH  
e|-1--1--x-13-13-|-3--3--x-3-3-|
B|-3--3--x-15-15-|-3--3--x-3-3-| 
G|-2--2--x-14-14-|-3--3--x-3-3-|
D|---------------|-------------|
A|---------------|-------------|	
E|---------------|-------------|
OHOOHOO        just like we're Kain and Abel 
e|-1--1--x-1-1-|-3---15-15-15-15-|	
B|-1--1--x-1-1-|-3---15-15-15-15-|	
G|-2--2--x-2-2-|-3---15-15-15-15-|	
D|-------------|-----------------|	
A|-------------|-----------------|	
E|-------------|-----------------|


   OH          OH OH 
e|-1--1--x-13-13-|-3--3--x-3-3-|
B|-3--3--x-15-15-|-3--3--x-3-3-| 
G|-2--2--x-14-14-|-3--3--x-3-3-|
D|---------------|-------------|
A|---------------|-------------|	
E|---------------|-------------|
OHOOHOO         We're gonna run this table 
e|-1--1---x-1-1-|-----------15-15-15-|
B|-1--1---x-1-1-|-11-11-11--15-15-15-|
G|-2--2---x-2-2-|-12-12-12-----------|
D|--------------|-12-12-12-----------|
A|--------------|--------------------|
E|--------------|--------------------|

Chorus

Dm        Bb          F         C    Bb

Dm
Read me your scripture now
Bb
Read me your scripture and 
F
read me your scripture and 
C         Bb
i will twist it 

Dm 
show me your wrist and 
Bb
show me your wrist and 
F
show me your wrist and 
C       Bb
Kiss it kiss it 

OH                    OHO 
e|-b15----------------|-b15-15-------------|
B|----15--------13h15-|--------------13h15-|
G|--------------------|--------------------|
D|--------------------|--------------------|
A|--------------------|--------------------|
E|--------------------|--------------------|
OHOOOO like we're Kain And Abel 
e|-b15-13-------15-13-|-13h15-13-----------|
B|---------13h15------|--------------------|
G|--------------------|----------12-b12p10-|
D|--------------------|--------------------|
A|--------------------|--------------------|
E|--------------------|--------------------|

Oh                   OHO 
e|--------------------|--------------------|
B|--------------------|--------------------|
G|-------------10-b12-|-12-----------------|
D|-12-----10h12-------|--------------------|
A|--------------------|--------------------|
E|--------------------|--------------------|
OHOOO We're gonna run this table 
e|-b15-15-------------|-b15----------------|
B|--------------------|----15------b15-15--|
G|--------------------|--------------------|
D|--------------------|--------------------|
A|--------------------|--------------------|
E|--------------------|--------------------|

Verse 3:
simple soldier hand it over 
stop and read what you just wrote her
strangulation altercation 
oral sex and bird migration

Chorus 2x

SOLO: 
e|-----------------5h8p5----------------------5h8p5---5h8p5----|
B|--------------6h8-----8p6----------------6h8-----8p6-----8p6-|
G|-5h7---------------------5h7---------------------------------|
D|-------------------------------------------------------------|
A|-------------------------------------------------------------|
E|-------------------------------------------------------------|

e|----------------------------------------------8---------8---------8----b10p8-|
B|------------------------------------------8h10-10p8-8h10-10p8-8h10-10p8------|
G|-5h7----------5h7---------5h7------------------------------------------~-----|
D|-----------------7p5---7p5---------------------------------------------------|
A|--------------------8p5------------------------------------------------------|
E|-----------------------------------------------------------------------------|

e|-10---------------------------------b15p12-----13-------------|
B|----------------13h15p13--13h14p13--------13h15--15-----------|
G|------------------------14--------14--------------------------|
D|--------------------------------------------------------------|
A|--------------------------------------------------------------|
E|--------------------------------------------------------------|

e|-------------------------------------------------------------------|
B|-13h15p13—-13h15p13--------------10h13p10--------------------------|
G|---------14--------14-12-10-10h12--------12p10-b12p10--------------|
D|-----------------------------------------------------12------------|
A|-------------------------------------------------------------------|
E|-------------------------------------------------------------------|

e|------------------------------------------10h13p10-------------------------|
B|-----------10h13p10-----10h13p10-----10h13--------13p10--------------------|
G|------10h12--------12p10--------12p10------------------12p10-b12~~p10------|
D|-10h12---------------------------------------------------------------12----|
A|---------------------------------------------------------------------------|
E|---------------------------------------------------------------------------|

e|---------------------------------13---------------------------|
B|-----------------13h15----------------------------------------|
G|--------------------------------------------------------------|
D|--------------------------------------------------------------|
A|--------------------------------------------------------------|
E|--------------------------------------------------------------|

Lascia un commento

Facebook Auto Publish Powered By : XYZScripts.com