Nothing But a G thang

Instrument: 4 String Bass

Tabbed by:  chris.funkhouser@houstonchristianhs.org

Tuning: Standard (E A D G)

G|---------------------------------||
D|---------------------------------||
A|-2--------2-----2--------2-------||
E|----5--2-----------5--2----------||


G|---------------------------------||
D|-------2--4-----------2--4-------||
A|-2--5-----------2--5-------------||
E|---------------------------------||
WP Facebook Auto Publish Powered By : XYZScripts.com