Red Hot Chili Peppers
American Ghost Dance
Freaky Styley

Bass
Intro:
G-|---------|---------|---------|
D-|---------|---------|---------|
A-|-5-5-5-5-|-5-5-5-5-|-5-5-5-5-|
E-|---------|---------|---------|

Verse:
G-|--------|---------------------|--------|----------------------|
D-|--------|---------------------|--------|----------------------|
A-|--------|-4-5-4---------------|--------|-4--5-4---------------|
E-|-0----0-|-------6-5-4-0----0-R|-0----0-|--------6-5-4-0----0--| etc.

Chorus:
G-|------------------------|-----------------------|
D-|---5--0--3--------------|--5--0--3--------------|
A-|------------3-----------|-----------3-----------|
E-|-0-------------0---0---0|0-------------0---0---0| etc.

Interlude(after second chorus):
G-|---------|---------|
D-|---------|---------|
A-|---------|---------|
E-|-0----0-R|-0----0-R| etc.

Last chorus + outro:
G-|------------------------|-----------------------|-----------------------|
D-|---5--0--3--------------|--5--0--3--------------|--5--0--3--------------|
A-|------------3-----------|-----------3--2---2---2|2----------3--2---2---2|
E-|-0-------------0---0---0|0----------------------|-----------------------|
                                                                   --->fade.
WP Facebook Auto Publish Powered By : XYZScripts.com