Animal Bar Bass Tab
Tabbed By : Kevin A. (Felas_Kevin)
e-mail: vekiskev@yahoo.com

Tuning: Standard

Verse:
 
G|-66~~~~-----------------------|
D|---77~~~~---------------------|
A|------5-5-5-5-5-5-5-5-5-5-5-5-|
E|------------------------------|
Note: Make sure you let all the notes ring out

Chorus:

G|-------444----------------------444-777-7777-|
D|---------444-7777-7777------555--------------|
A|-222-555----------------777------------------|
E|---------------------------------------------|

Bridge:

G|-16------16------16----14-------------------12-----12------12----|
D|-------------------------------14--------------------------------|
A|---14-14----14-14---14----12-12--12-12-12-12--10-10---10-10--10--|
E|-----------------------------------------------------------------|

G|-11-----9-------9---------|
D|--------------------------|
A|----9-9---9-9-9-----------|
E|--------------------------|

Song order:
Verse  x 21
Chorus x 4
Verse  x 21
Chorus x 4
Verse  x 5
Bridge x 8
Chorus x 6
Verse  x 9
=============================================================================
| /  slide up
|   slide down
| h  hammer-on
| p  pull-off
| ~  let ring
| +  harmonic
| x  Mute note
=============================================================================
WP Facebook Auto Publish Powered By : XYZScripts.com