Song: Around the world
Album: Californication

Intro
G|------------------| 
D|------------------| 
A|------------------| 
E|--0------0-0-0-0--| 

G|--7h9-9-7h9-9-7h9-9-7h9-9-9-7------|--7h9-9-7h9-9-7h9-9-7------------| (x4) 
D|------------------------------9-7--|----------------------9-7--------| 
A|-----------------------------------|--------------------------7-5----| 
E|-----------------------------------|------------------------------7--| 

Verse 1
G|---------------------------------|-------------------------------------| 
D|----3-5-----2-3---3-5-----3-2----|----3-5-----2-3---3-5-------3-2------| 
A|------------------------------1--|--------------------------1-----3-1--| 
E|--3-----1-3-----3-----1-3--------|--3-----1-3-----3-----1-3------------| 

G|------------------------------|----------------------------------------| 
D|----3-5-----2-3---3-5---------|----3-5-----2-3---3-5-------------------| 
A|----------------------~3-~5---|------------------------1---1-3-5-8-10--| 
E|--3-----1-3-----3-------------|--3-----1-3-----3-----3---3-------------| 

Chorus 1
G|------13--------------12--12-----10--------------------| (x2) 
D|---------10-13-------------------------10------10--10--| 
A|--11-----------10--10--------8------11-----------------| 
E|------------------------------------------8--8---------| 

Verse 2
G|---------------------------------|---------------------------------------| 
D|----3-5-----2-3---3-5-----3-2----|----3-5-----2-3---3-5-------3-2-3-2-3--| 
A|------------------------------1--|--------------------------1------------| 
E|--3-----1-3-----3-----1-3--------|--3-----1-3-----3-----1-3--------------| 

G|------------------------------|----------------------------------------| 
D|----3-5-----2-3---3-5---------|----3-5-----2-3---3-5-------------------| 
A|----------------------~3-~5---|------------------------1---1-3-5-8-10--| 
E|--3-----1-3-----3-------------|--3-----1-3-----3-----3---3-------------| 

Chorus 2 (Same as Chorus 1)
Intro (Second & Third bar of Intro, but 4 times instead of 2)
"Bridge"
G|------------------------------| 
D|----3-5-----2-3---3-5--53-----| 
A|-------------------------53~--| 
E|--3-----1-3-----3-------------| 

Verse 3 (Same as Verse 1)
Chorus 3 (Same as Chorus 1 with some variations, but 4 times)
Ending
G|-------------------| 
D|--2-3-2------------| 
A|--------5-5-5-5-5--| 
E|-------------------| 

G|-------------------------| (x13) 
D|--------2-3-2------------| 
A|----3---------5-5-5-5-5--| 
E|--5---5------------------| 

Last 2 Bars
G|------------------------------|-------------------------------| 
D|--------2-3-2-----------------|--------2-3-2------------------| 
A|----3---------5-/10-10-10-10--|----3---------5-/12-12-12-12--| 
E|--5---5-----------------------|--5---5------------------------|


*****************************************************************************

Second version:

**********************************
Artist: Red Hot Chili Peppers	 *
Song: Around The World		 *
Album: Californication		 *
Tabbed by Ice-Man		 *
E-Mail: andreasrusso@hotmail.com *
**********************************

+++++++++++
P=Pop	  +
h=Hammer  +
p=Pushup  +
/=Slide	  +
~=Vibrato +
+++++++++++


Pre Intro [With distortion]

G|--------------------------------|--------------------------------|
D|--------------------------------|--------------------------------|
A|--------------------------------|--------------------------------|
E|0-------------------------------|0-------0-------0-------0-------|
  P				   P	   P	   P	   P

Intro [With distortion]

G|7hhh9---9---7hhh9---9---7hhh9---|9---7hhh9---7-------------------|7hhh9---9---7hhh9---9---7hhh9---|9---7---------------------------|
D|--------------------------------|----------------9---8---7-------|--------------------------------|--------9---8---7---------------|
A|--------------------------------|----------------------------10--|--------------------------------|--------------------10--7-------|
E|--------------------------------|--------------------------------|--------------------------------|----------------------------10--|[x4]


Pre Verse

G|--------------------------------|--------------------------------|
D|--------------------------------|--------------------------------|
A|--------------------------------|--------------------------------|
E|3///////15----------------------|--------------------------------|


First Verse

G|----10------12----------9---10--|----10------12----------10--9---|----10------12----------9---10--|----10------12------------------|
D|--------------------------------|------------------------------8-|--------------------------------|----------------------3-2-------|
A|--------------------------------|--------------------------------|--------------------------------|--------------------1-----1-----|
E|3---------------1---1-----------|3---------------1---1-----------|3---------------1---1-----------|3---------------1-3---------3-1-|

G|----10------12----------9---10--|---10-----12--------------------|----10------12----------9---10--|----10------12----------------0-|
D|--------------------------------|--------------------------------|--------------------------------|------------------------3-0-3---|
A|--------------------------------|--------------------------------|--------------------------------|--------------------1-3---------|
E|3---------------1---1-----------|3--------------7-------5--------|3---------------1---1-----------|3---------------1-3-------------|
						  ~	  ~

First Chorus

G|--------------------------------|--------------------------------|--------------------------------|--------------------------------|
D|--------------------------------|--------------------------------|--------------------------------|----------------5---------------|
A|------------------------3-------|----------------1---------------|------------------------3-------|3-----------3-------------------|
E|4---------------3---------------|3-----------3-------------------|1---------------4---------------|--------------------------------|

G|--------------------------------|--------------------------------|--------------------------------|--------------------------------|
D|--------------------------------|--------------------------------|--------------------------------|----------------5---------------|
A|------------------------3-------|----------------1---------------|------------------------3-------|3-----------3-----------3/19\3-|
E|4-----------4---3---------------|3-----------3-------------------|1-----------1---4---------------|--------------------------------|


Second Pre Verse

G|--------------------------------|
D|--------------------------------|
A|--------------------------------|
E|3-------------------------------|


Second Verse

G|----10------12----------9---10--|----10------12----------10------|----10------12----------9---10--|----10------12------------------|
D|--------------------------------|--------------------------7h8---|--------------------------------|----------------------3-2-3-2-3-|
A|--------------------------------|--------------------------------|--------------------------------|--------------------1-----------|
E|3---------------1---1-----------|3---------------1---1-----------|3---------------1---1-----------|3---------------0-1-------------|

G|----10------12----------9---10--|----10------12------------------|----10------12----------9---10--|----10--------------------------|
D|--------------------------------|--------------------------------|--------------------------------|--------------------0-3---------|
A|--------------------------------|--------------------------------|--------------------------------|----------------3---------------|
E|3---------------1---1-----------|3---------------7---5-----------|3---------------1---1-----------|3-----------0-1-----------------|
						   ~   ~

Second Chorus

G|--------------------------------|--------------------------------|--------------------------------|--------------------------------|
D|--------------------------------|--------------------------------|--------------------------------|----------------5---------------|
A|------------------------3-------|----------------1---------------|------------------------3-------|3-----------3-------------------|
E|4---------------3---------------|3-----------3-------------------|1---------------4---------------|--------------------------------|

G|--------------------------------|--------------------------------|--------------------------------|--------------------------------|
D|--------------------------------|--------------------------------|--------------------------------|----------------5---------------|
A|------------------------3-------|----------------1---------------|------------------------3-------|3-----------3---------0/10------|
E|4-----------4---3---------------|3-----------3-------------------|1-----------1---4---------------|--------------------------------|


Repeat Intro


Third Pre Verse

G|----10------12----------9---10--|----10------12--10hh12pp10------|
D|--------------------------------|--------------------------12--10|
A|--------------------------------|--------------------------------|
E|3---------------1---1-----------|3-------------------------------|
								 ~

Third Verse

G|----10------12----------9---10--|----10------12----------10--9---|----10------12----------9---10--|----10------12------------------|
D|--------------------------------|------------------------------8-|--------------------------------|----------------------3-2-------|
A|--------------------------------|--------------------------------|--------------------------------|--------------------1-----1-----|
E|3---------------1---1-----------|3---------------1---1-----------|3---------------1---1-----------|3---------------1-3---------1---|

G|----10------12----------9---10--|---10-----12--------------------|----10------12----------9---10--|----10------------------------0-|
D|--------------------------------|--------------------------------|--------------------------------|----------------------0-3-0-3---|
A|--------------------------------|--------------------------------|--------------------------------|----------------1---3-----------|
E|3---------------1---1-----------|3--------------7-------5--------|3---------------1---1-----------|3---------0-1-3---3-------------|
						  ~	  ~

Third Chorus

G|--------------------8-----------|--------------------------------|--------------------------------|--------------------------------|
D|6-----------6-------------0-5-0-|5-------------------5-------5---|3-----------3-------5---6-5-3---|--------------------------------|
A|--------------------------------|--------------------------------|--------------------------------|6-----------3-------3-----------|
E|--------------------------------|------------3-------------3-----|--------------------------------|--------------------------1-3-1-|

G|--------------------------------|--------------------------------|--------------------------------|--------------------------------|
D|--------------------------------|--------------------------------|--------------------------------|--------------------------3-5---|
A|--------------------6---5-3-----|--------------------------------|------------------------1---1---|6-----------3-----3-5---6-------|
E|4-----------4---------------4---|3-----------3-------------------|1---1---3---3---4---4-----------|--------------------------------|

G|--------------------------------|--------------------------------|--------------------------------|--------------------------------|
D|6-----------6-------6-------6---|5-------------------------------|3---------3/5-------3\1-------|--------------------------------|
A|--------------------------6---6-|--------------------------------|--------------------------------|6-----------3-------5---6-5-3---|
E|--------------------------------|------------3---------------3---|--------------------------------|--------------------------------|

G|--------------------------------|--------------------------------|--------------------------------|--------------------------------|
D|--------------------------------|--------------------------------|------------3-------5---6-5-3---|--------------------------------|
A|--------------------6-----------|--------------------------------|--------------------------------|6-------------------------------|
E|4-----------4-------------1-3-1-|3-----------3---------------3---|1-------------------------------|--------------------------------|


Outro

G|--------------------------------|--------------------------------|--------------------------------|--------------------------------|
D|--------------------------------|--------------------------------|--------------------------------|--------------------------------|
A|5-8-7-5---5---5---5---5---0-3-0-|5-8-7-5---5---5---5---5---0-3-0-|5-8-7-5---5---5---5---5---0-3-0-|5-8-7-5---5---5---5---5---0-3-0-|
E|--------------------------------|--------------------------------|--------------------------------|--------------------------------|

G|--------------------------------|--------------------------------|--------------------------------|--------------------------------|
D|--------------------------------|--------------------------------|--5-----------------------------|--------------------------------|
A|5-8-7-5---5---5---5---5---0-3-0-|5-8-7-5---5---5---5---5---0-3-0-|5---8-5---5---5---5---5---0-3-0-|5-8-7-5---5---5---5---5---0-3-0-|
E|--------------------------------|--------------------------------|--------------------------------|--------------------------------|

G|--------------------------------|--------------------------------|--------------------------------|--------------------------------|
D|--------------------------------|--------------------------------|--------------------------------|--------------------------------|
A|5-8-7-5---5---5---5---5---0-3-0-|5-8-7-5---5---5---5---5---0-3-0-|5-8-7-5---5---5---5---5---0-3-0-|5-8-7-5---5---5---5---5---0-3-0-|
E|--------------------------------|--------------------------------|--------------------------------|--------------------------------|

G|--------------------------------|--------------------------------|--------------------------------|--------------------------------|
D|--------------------------------|--------------------------------|--------------------------------|--------------------------------|
A|5-8-7-5---5---5---5---5---0-3-0-|5-8-7-5---5---5---5---5---0-3-0-|5-8-7-5--/10--10--10--10--0-3-0-|5-8-7-5--/12--12--12--12\\\0-|
E|--------------------------------|--------------------------------|--------------------------------|--------------------------------|

***************************************
3rd version

TUNED: 
G
D
A
E

INTRO

G|-----|-----------|-7h9-9-7h9-9-7h9-9-|7----------|-7h9-9-7h9-9-7h9|-----------------|
D|-----|-----------|-------------------|--9-8-7----|----------------|-9-8-7-5---------|    X 4
A|-----|----------|--------------------|--------7-5|----------------|---------7-5-----|
E|0----|-0-0-0-0-|---------------------|-----------|----------------|-------------7-5-|
  T      P P P P  
G|----------|
D|----------|
A|----------|
E|-3/153-3-|
          P   
VERSE 1
                                                                                                                                                                      
G|----10-12-------9-10-|----10-12-------10-9---|----10-12-------9-10-|----10-12-----------------|----10-12-------9-10-|----10-12-----------------|----10-12-------9-10-|----10-12----------------|
D|---------------------|---------------------8-|---------------------|-----------------3-2------|---------------------|--------------------------|---------------------|-------------------------|
A|---------------------|-----------------------|---------------------|---------------1-----1----|---------------------|--------------------------|---------------------|-----------------3h1---3-|
E|-3---------1-3-------|-3---------1-3---------|-3---------1-3-------|-3---------1-3---------1--|-3---------1-3-------|-3---------/^^8^^--/^^6^^-|-3---------1-3-------|-3--------1-h-3------1---|
 
RIT.
                                                                                            
G|--------5---8-|--------7---7---|------------5-|-------------|
D|-6----6-------|-5----5-------5-|-3----3-6-----|--------5---5|
A|--------------|----------------|--------------|-3----3------|   X 2   
E|--------------|----------------|--------------|-------------|
                                                
                                                |-------------|---------|   
                                                |--------5----|---------|
                                                |-3----3------|---------|
                                                |-------------|3/153-3-|
                                                                      P
VERSE 2

G|----10-12-------9-10-|----10-12-------10-9---|----10-12-------9-10-|----10-12-----------------|----10-12-------9-10-|----10-12--1210------108----|----10-12-------9-10-|----10-12------------------|
D|---------------------|---------------------8-|---------------------|-----------------3-2-3-2-3|---------------------|---------------1210-----108-|---------------------|-----------------------1h3-|
A|---------------------|-----------------------|---------------------|---------------1----------|---------------------|----------------------------|---------------------|-------------------1h3-----|
E|-3---------1-3-------|-3---------1-3---------|-3---------1-3-------|-3---------1-3------------|-3---------1-3-------|-3--------------------------|-3---------1-3-------|-3---------1-h-3----------|

RIT X 2  

G|------------------|-----------|
D|--------5let-ring/|12---------|
A|-3----3-----------|-----------|
E|------------------|-----------|

INTRO X 8


BRIDGE

G|----10-12-------9-10-|----10-12let-ring-1210---------|
D|---------------------|----------------------12^10^^^-|
A|---------------------|-------------------------------|
E|-3---------1-3-------|-3-----------------------------|

VERSE 3
                                                                      /                                   VARIAZONE DA CONCERTO                                      
G|----10-12-------9-10-|----10-12-------10-9---|----10-12-------9-10-|----10-12--1516151615161516|15161516151615161516151615161516|15161516151615161516151615161516|----10-12-------9-10-|------------------|
D|---------------------|---------------------8-|---------------------|---------------------------|--------------------------------|--------------------------------|---------------------|--------------3-35|
A|---------------------|-----------------------|---------------------|---------------------------|--------------------------------|--------------------------------|---------------------|----------1-35-5--|
E|-3---------1-3-------|-3---------1-3---------|-3---------1-3-------|-3-------------------------|--------------------------------|--------------------------------|-3---------1-3-------|-3--1--123-3------|
                                                                                                                                                                 /
RIT X 4


OUTRO

G|---------|--------------------------------|
D|---------|--------------------------------|  X 10
A|----7-8-7|-5---5---5---5---5-----3---7-8-7|
E|---------|---------------------5---5------|

G|---------------------------------------|--------------------------|
D|---------------------------------------|--------------------------|
A|-5/10---10---10---10---10-----3---7-8-7|-5/12---12---12---12---12|
E|----------------------------5---5------|--------------------------|
WP Facebook Auto Publish Powered By : XYZScripts.com