Baby Appeal 

Intro 

e-|--------------------------|---------------------------------------------|
B-|-14--14-14----------------|-14--14-14-----------------------------------|
G-|-14--14-14----------------|-14--14-14-----------------------------------|  
D-|-14--14-14----------------|-14--14-14-----------------------------------|
A-|--------------------------|---------------------------------------------|
E-|------------12-14--12-14--|------------12-14---12-14--2-2-0-2-0-2-2-0-2-|


e|---- ---!  ----------|
B|---- ---!  ----------|
G|-11- -7-!  ----------|
D|-11- -7-!  -4-4--4-4-|
A|--9- -5-!  -4-4--4-4-|
E|---- ---!  -0-2--0-2-|


e|-------------------------------------------------|
B|-------------------------------------------------|
G|---------9--9--6--7------------------------------|
D|---------9--9--6--7------------------------------|
A|---------7--7--4--5------------------------------|
E|---0--0---------------11/12----------------------|

SOLO :


e|----------------------------------------------------------|
B|----------------------------------------------------------|
G|----------------------------------------------------------|
D|--9---------------------------------------------------5---|
A|-------7--5--4--5--4--------------------7--5--4--5--4-----|
E|-----0----------------3--0--0---------0-------------------|


Tablatures de Joe Le Tordu.

Lascia un commento

Facebook Auto Publish Powered By : XYZScripts.com