Black Cross

| /  slide up
|   slide down
| h  hammer-on
| p  pull-off


standard tuning

guitar is distorted


Intro
|------------------------------------------|
|------------------------------------------|
|------------------------------------------|
|----------------8-8-----------------------|
|--7-7-7-7--8-8--6-6----7-7-7-7--5-5--7-7--|
|--5-5-5-5--6-6---------5-5-5-5--3-3--5-5--|  X4


|----------------------5-5-5-X-5-5-5-------|
|----------------------5-5-5-X-5-5-5-------|
|------------------------------------------|
|------------------------------------------|
|-12-11-10-9-8-7-6-5-----------------------|
|-10--9--8-7-6-5-4-3-----------------------|  X4


|------------------------------------------|
|------------------------------------------|
|------------------------------------------|
|--------8-8-------------------------------|
|--7--8--6-6--10--13--12-12----------------|
|--5--6--------8--11--10-10----------------|  X2


|------------------------------------------|
|------------------------------------------|
|------------------------------------------|
|--------8-8-------------------------------|
|--7--8--6-6--10-13-10-13-10-13-10-13------|
|--5--6--------8-11--8-11--8-11--8-11------|  X2


|------------------------------------------|
|------------------------------------------|
|------------------------------------------|
|----------------8-8-----------------------|
|--7-7-7-7--8-8--6-6----7-7-7-7--5-5--7-7--|
|--5-5-5-5--6-6---------5-5-5-5--3-3--5-5--|  X4


|----------------------5-5-5-X-5-5-5-------|
|----------------------5-5-5-X-5-5-5-------|
|------------------------------------------|
|------------------------------------------|
|-12-11-10-9-8-7-6-5-----------------------|
|-10--9--8-7-6-5-4-3-----------------------|  X4


|------------------------------------------|
|------------------------------------------|
|------------------------------------------|
|--------8-8-------------------------------|
|--7--8--6-6--10--13--12-12----------------|
|--5--6--------8--11--10-10----------------|  X2


|------------------------------------------|
|------------------------------------------|
|------------------------------------------|
|--------8-8-------------------------------|
|--7--8--6-6--10-13-10-13-10-13-10-13------|
|--5--6--------8-11--8-11--8-11--8-11------|  X2


|------------------------------------------|
|------------------------------------------|
|-----------------8-8----------------------|
|------------8-8--6-6----------------------|
|--7-7--8-8--6-6---------------------------|
|--5-5--6-6--------------------------------|


|------------------------------------------|
|------------------------------------------|
|-8-8--------------------------------------|
|-6-6--8-8---------------------------------|
|------6-6--8-8--7-7-----------------------|
|-----------6-6--5-5-----------------------|

|------------------------------------------|
|------------------------------------------|
|-----------------8-8----------------------|
|------------8-8--6-6----------------------|
|--7-7--8-8--6-6---------------------------|
|--5-5--6-6--------------------------------|


|------------------------------------------|
|------------------------------------------|
|-8-8--------------------------------------|
|-6-6--8-8---------------------------------|
|------6-6--8-8--7-7-----------------------|
|-----------6-6--5-5-----------------------|


|------------------------------------------|
|------------------------------------------|
|------------------------------------------|
|-12-10----10-12-13-12-10------------------|
|-------11----------------10h11------------|
|------------------------------------------|


|------------------------------------------|
|------------------------------------------|
|------------------------------------------|
|-12-10-12-12-10-12-12/1312-10------------|
|-------------------------------10---------|
|------------------------------------------|


|------------------------------------------|
|------------------------------------------|
|------------------------------------------|
|----12-10-12-12-10-12h13p12---------------|
|----------------------------10h11---------|
|-10---------------------------------------|


|------------------------------------------|
|------------------------------------------|
|------------------------------------------|
|--12-10-12-12-10-12-10----10--------------|
|-----------------------11----11--7--------|
|---------------------------------5--------|


|------------------------------------------|
|------------------------------------------|
|------------------------------------------|
|----------------8-8-----------------------|
|--7-7-7-7--8-8--6-6----7-7-7-7--5-5--7-7--|
|--5-5-5-5--6-6---------5-5-5-5--3-3--5-5--|  X5


|----------------------5-5-5-X-5-5-5-------|
|----------------------5-5-5-X-5-5-5-------|
|------------------------------------------|
|------------------------------------------|
|-12-11-10-9-8-7-6-5-----------------------|
|-10--9--8-7-6-5-4-3-----------------------|  X4

End
|----------------|
|----------------|
|----------------|
|--------8-8-----|
|--7--8--6-6-----|
|--5--6----------|

Lascia un commento

Facebook Auto Publish Powered By : XYZScripts.com