Blackeyed Blonde
From the Album "Freaky Styley"

  Intro:
G -----------------------------------------7-7------------I
D --------------------------------------------------------I
A -3-5-0-3-5-----3-5-0-3-5-----3-5-0-3-5-------3-5-0-3-5--I
E --------------------------------------------------------I
  Verse:        ' '   ' '              ' '   ' '
G ------------X-7-5-X-7-5------------X-7-5-X-7-5--------------
D ------------------------------------------------------------
A -3/5-X-3/5---------------3/5-X-3/5---------------3/5-X-3/5--
E ------------------------------------------------------------
     ' '   ' '
G -X-7-5-X-7-5----I
D ----------------I
A -------------5--I
E ----------------I
  Repeat this part four times:
               ' '   ' '              ' '   ' '
G -----------X-7-5-X-7-5------------X-7-5-X-7-5---I
D ------------------------------------------------I
A -3/5-X-3/5--------------3/5-X-3/5---------------I
E ------------------------------------------------I
  Chorus:									    At the End:
G --------------------------------------------------I----------
D -----5-7------------------5-7-5-5-0-5-7-----------I----------
A -----------7-5---------------------------7-5------I--3--4----
E -3-5-----------8-5----3-5--------------------8-5--I----------
  Flea alone:   ' '   ' '               ' '   ' '
G ------------X-7-5-X-7-5-------------X-7-5-X-7-5---I------------
D --------------------------------------------------I-3-3-3-3-3-3
A -3/5-X-3/5---------------3/5-X-3/5----------------I------------
E --------------------------------------------------I------------

  Guitar Solo:  ' '   ' '               ' '   ' '
G ------------X-7-5-X-7-5-------------X-7-5-X-7-5---I------------
D --------------------------------------------------I-----8-10---
A -3/5-X-3/5---------------3/5-X-3/5----------------I------------
E --------------------------------------------------I-6-8--------

G --------------------------------------------------I
D -------------------8-10--8-8----8-10--------------I
A -10-8------------------------10-------10-8--------I
E ------10-8----6-8--------------------------10-8---I


  Ending:      ' '   ' '                ' '   ' '
G -----------X-7-5-X-7-5--------------X-7-5-X-7-5---I-----------
D --------------------------------------------------I-----------
A -3/5-X-3/5---------------3/5-X-3/5----------------I--3-5--3-5-
E --------------------------------------------------I-----------

Explanations:

/ = slide
' = pop with finger
X = mute string

Lascia un commento

Facebook Auto Publish Powered By : XYZScripts.com