Song:Blood Sugar Sex Magik
Album:Blood Sugar Sex Magik
Transcriber:Dan Rodriguez---Binki535@aol.com

Signs: (h)=hammer
           (p)=pull off
           /=slide upward
           =slide downward
           ^=bend
Intro: ** 4 Times

------------------------------------------------------------------------------
-----------------------------------------
-------10--12(h)14--10(h)12-----------------------------9--10(h)12--9(h)10----
------------------------
12-----------------------------------10(h)12--XXXX-12-------------------------
-----9(h)10--XXXX--------
------------------------------------------------------------------------------
-----------------------------------------

Verse: ** Same as intro 4 Times also


Chorus: ** 4 times

------------------------------7-----------------------------------------------
---------------------------------------
----------------------------------9--8(p)7--5--------------------------------
------------------------------------
-----------7--5--7----------------------------------------7--5--7-----------4-
-5--------------------------------
-0--0-0-----------------------------------------0--0-0---------------3--5-----
-----------------------------------


Interlude: **Once

------------------------------------------------------------------------------
----------------------------------------
------------------------------------------------------------------------------
----------------------------------------
------------------------------------------------------------------------------
----------------------------------------
0--0--0--0--0--0--0--0--2--2--2--2--2-----------------------------------------
------------------------------

Interlude:
During Guitar Solo: 
** 3 Times                               
------------------------------------------------------------------|
------------------------------------------------------------------|
3--3--3--X-3--0-3--0-3-0-5--5--5--X-5--0-5--0-5-0--|
------------------------------------------------------------------|

** 4 Time, Do this:

-----------------------------------------------------------------|
-----------------------------------------------------------------|
3--3--3--X-3--0-3--0-3-0-5--5--5--5-0-6--6--6--6---|
-----------------------------------------------------------------|


Ending:
Hold Note:
------------------------------------------------------------------------------
-------------------------------------
------------------------------------------------------------------------------
-------------------------------------
------------------------------------------------------------------------------
------------------------------------
0-----------------------------------------------------------------------------
------------------------------------


Song Order:
Intro:
Verse:
Chorus:
Bridge:
Intro: ******* 2 Times!!!!!!
Verse:
Chorus:
Interlude:
Chorus:
Interlude:
Chorus:
Ending:

Lascia un commento

Facebook Auto Publish Powered By : XYZScripts.com