Song - Brandy

This is a great song so I thought I would tab it, It's only the basic bassline, and there are loads of little riffs in the song which you can hear.
I haven't tabbed them, but you can probably work some out for yourselves as you play, if you keep in the key.

Any problems e-mail me at chodges84@yahoo.com and I'll try and help.

Intro [x1]

G|-------6-4-------------------|------6-4----9-6----|
D|-----------7--7-7-6-7-6------|----------7-------7-|
A|--4-4-------------------7-6--|--4-4---------------|
E|-----------------------------|--------------------|

G|-------------------|
D|-------------------|
A|-------------------|
E|--7-7-7-7-7-7-7-7--|

G|-----9------9---------------|
D|--7----7-8----8--------9-9--|
A|-----------------9-9-9------|
E|----------------------------|


Verse [x2]

G|------------------------|-------------------|
D|--------6---6-----6-----|-------------------|
A|--7---7--------9--------|----9-7---0---5----|
E|---------------------9--|--9-----9------5---|

G|------------------------|-------------------|
D|--------6---6-----6-----|-------------------|
A|--7---7--------9--------|----9-7---0--0--7--|
E|---------------------9--|--9-----9----------|


Chorus [x1]

G|-------6-4-------------------|------6-4----9-6----|
D|-----------7--7-7-6-7-6------|----------7-------7-|
A|--4-4-------------------7-6--|--4-4---------------|
E|-----------------------------|--------------------|

G|-------------------|
D|-------------------|
A|-------------------|
E|--7-7-7-7-7-7-7-7--|

G|-----9------9---------------|
D|--7----7-8----8--------9-9--|
A|-----------------9-9-9------|
E|----------------------------|


Verse [x2]


Chorus [x1]


Interlude [x1]

G|------------------------------------------------|
D|------------------------------------------------|
A|--4-4--4-4-4--2-2-2-2--2--0--0-0--0--2-2-2-2-2--|
E|------------------------------------------------|

G|------------------------------------------------|
D|------------------------------------------------|
A|--4-4--4-4-4--2-2-2-2--2--0--0-0--0--2-2-2-2-2--|
E|------------------------------------------------|

G|------------------------------------------------|
D|------------------------------------------------|
A|--4-4--4-4-4--5--5-5-5-5--4--4-4--4--0--0-0-0-0-|
E|------------------------------------------------|

G|-------------------|
D|-------------------|
A|-------------------|
E|--7-7-7-7-7-7-7-7--|

G|-----9------9---------------|
D|--7----7-8----8--------9-9--|
A|-----------------9-9-9------|
E|----------------------------|


Verse [x1]


Chorus [x2]


G|-----9------9---------------|
D|--7----7-8----8--------9-9--|
A|-----------------9-9-9------|
E|----------------------------|

G|-----9------9-----------------|
D|--7----7-8----8--------9-9-9--|
A|-----------------9-9-9--------|
E|------------------------------|


End On

G|-----|
D|-----|
A|-----|
E|--0--|

Lascia un commento

Facebook Auto Publish Powered By : XYZScripts.com