Breaking The Gril
From the album BloodSugerSexMagik
Tabbed by Martin Peters
Bass 

Fast
The song goes in 3:4

Main bass figure:
G-|----------|---------|---------|---------|
D-|----6---6-|-----4-6-|---6---6-|---6-4---|
A-|------6---|---6-----|-----6---|-------6-|
E-|-4--------|-4-------|-4-------|-4-------|

G-|-----------|--------|---------|---------|
D-|---6---6---|------4-|---6---6-|---6---6-|
A-|-----6---6-|----6---|-----6---|-----6---|
E-|-4---------|-4------|-4-------|-4-------|


Chorus:
G-|-----------|--------|----------|---------|----------|
D-|-----------|----1-4-|----------|---------|---6---6--|
A-|-2---2--2--|-2------|----------|-4--1----|-----6----|
E-|-----------|--------|-2---2--2-|-------2-|-4--------|


G-|----------|---------|----------|----------|---------|
D-|-------4--|-6--6--6-|-6--4-----|----------|----1--4-|
A-|----6-----|---------|-------6--|-2---2--2-|-2-------|
E-|-4--------|---------|----------|----------|---------|


G-|----------|------------|----------|--------|---------|---------|
D-|----------|------------|----------|--------|-2---2-2-|-2-----2-|
A-|----------|------------|----------|------2-|---------|----2----|
E-|-2---2--2-|-2--2-2h4p2-|-0--0-0-0-|-0--0---|---------|---------|


G-|----------|----------|----------|----------|----------|----------|
D-|----------|----------|----------|----------|----------|----------|
A-|----------|----------|----------|-4--4--4--|-6--6--6--|-4--4--4--|
E-|-4--4--4--|-6--6--6--|-7--7--7--|----------|----------|----------|


G-|----------|----------|----------|----------|----------|----------|
D-|----------|----------|----------|----------|----------|----------|
A-|----------|----------|----------|----------|----------|-4--4--4--|
E-|-7--7--7--|-6--6--6--|-4--4--4--|-6--6--6--|-7--7--7--|----------|


G-|----------|----------|----------|----------|----------|
D-|----------|----8--6--|-8--6--8--|-9--8--6--|----------|
A-|-7--7--7--|-7--------|----------|----------|-7--7--7--|
E-|----------|----------|----------|----------|----------|


G-|----------|----------|------------|
D-|----------|----------|------------|
A-|-7--7--7--|-7--7--7--|-6--6-6--6--|
E-|----------|----------|------------|


Interlude:
G-|---------|---------|---------|----------|
D-|---6---6-|---6---6-|---6---6-|----------|
A-|-----6---|-----6---|-----6---|----------|
E-|-4-------|-4-------|-4-------|-7--7--7--|
Play eight times
WP Facebook Auto Publish Powered By : XYZScripts.com