Bullet Proof     

Standard Tuning

Intro 4x
|-----------------------------------------|
|------------5----------------------------|
|-7--5-5--7-----7--5--7-----------2-------|
|------------------------5--3--5-----3--0-|

Main part 12x
|-----------------4--5------|
|-----------7--7--------7-5-|
|-7--7-7--7-----------------|
|---------------------------|

Ending 3x
|-----------------------------------------|
|------------5----------------------------|
|-7--5-5--7-----7--5--7-----------2-------|
|------------------------5--3--5-----3--0-|

and than play this
|----------------------------------------------|
|------------5-----------7--5--7--8--9--12--14-|
|-7--5-5--7-----7--5--7------------------------|
|----------------------------------------------| 

Lascia un commento

Facebook Auto Publish Powered By : XYZScripts.com