Title: Bunker Hill
Transcribed by: Greenie 12
Email: onkel44@hotmail.com

Intro:

     Bm          D                      E    G             G   A
G-|----------------------------------|------------------------------|-
D-|----------------------------------|------------------------------|-
A-|----------------------------------|------------------------------|-
E-|--7----7---7--10--10-10-10-10-10--|--0----3-3-3-0--3--0-3-3-5-5--|-


     Bm          D                      E    G             G   A
G-|----------------------------------|------------------------------|-
D-|----------------------------------|------------------------------|-
A-|----------------------------------|------------------------------|-
E-|--7----7---7--10--10-10-10-10-10--|--0----3-3-3-0--3--0-3-3-5-5--|-



Verse:


     Bm          D                      E    G             G   A
G-|----------------------------------|------------------------------|-
D-|----------------------------------|------------------------------|-
A-|----------------------------------|------------------------------|-
E-|--7----7---7--10--10-10-10-10-10--|--0----3-3-3-0--3--0-3-3-5-5--|-


     Bm          D                      E    G             G   A
G-|----------------------------------|------------------------------|-
D-|----------------------------------|------------------------------|-
A-|----------------------------------|------------------------------|-
E-|--7----7---7--10--10-10-10-10-10--|--0----3-3-3-0--3--0-3-3-5-5--|-



Verse End:


     C
G-|----------------------|-
D-|----------------------|-
A-|----------------------|-
E-|--8----8----8----8----|-



Chorus:


     E                                       C 
G-|--16----16--16-16--16-16--16-16-16-16--|--12----12--12-12--12-12--12-12-12-12--|-
D-|--14----14--14-14--14-14--14-14-14-14--|--10----10--10-10--10-10--10-10-10-10--|-
A-|---------------------------------------|---------------------------------------|-
E-|---------------------------------------|---------------------------------------|-

     G
G-|--7----7--7-7--7-7--7-7-7-7--|--7----7--7-7--7-7--7-7-7-7--|-
D-|--5----5--5-5--5-5--5-5-5-5--|--5----5--5-5--5-5--5-5-5-5--|-
A-|-----------------------------|-----------------------------|-
E-|-----------------------------|-----------------------------|-



Interlude:


     Bm                      C
G-|-----------------------|----------------------|-
D-|-----------------------|----------------------|-
A-|-----------------------|----------------------|-
E-|--7----7----7----7-----|--8----8----8----8----|-

 
     Bm                      C                         
G-|-----------------------|----------------------|-
D-|-----------------------|----------------------|-
A-|-----------------------|----------------------|-
E-|--7----7----7----7-----|--8----8----8----8----|-



Outro:  


     E               C               G               G
G-|---------------|---------------|---------------|---------------|-
D-|---------------|---------------|---------------|---------------|-
A-|--7------------|--3------------|---------------|---------------|-
E-|---------------|---------------|--3------------|--3------------|-
WP Facebook Auto Publish Powered By : XYZScripts.com