By the Way
from "By The Way"
Music by KiedisFleaFruscianteSmith
Warner Bros. Music 2002


*****************************************************************
Version 1:
Transcripted by: jm2k

Intro
e---------------------------|----------------------------|
B---------------------------|----------------------------|
G---------------------------|----------------------------|
D---10-10-10-10-10-10-10-10-|--10-10-10-10-10-10-10-10---|
A----8--8--8--8--8--8--8--8-|---7--7--7--7--7--7--7--7---|
E---------------------------|----------------------------|

e---------------------------|----------------------------|
B---------------------------|----------------------------|
G---------------------------|----------------------------|
D----2--2--2--2--2--2--2--2-|---2--2--2--2--2--2--2--2---|
A----0--0--0--0--0--0--0--0-|---0--0--0--0--0--0--0--0---|
E---------------------------|----------------------------|


Standing in line.....
e---------------------------|----------------------------|
B---------------------------|----------------------------|
G---------------------------|----------------------------|
D---10-10-10-10-10-10-10-10-|--10-10-10-10-10-10-10-10---|
A----8--8--8--8--8--8--8--8-|---7--7--7--7--7--7--7--7---|
E---------------------------|----------------------------|

e---------------------------|----------------------------|
B---------------------------|----------------------------|
G---------------------------|---------------9--9--7--7---|
D----7--7--7--7--7--7--7--7-|---7--7--7--7---------------|
A----0--0--0--0--0--0--0--0-|---0--0--0--0---------------|
E---------------------------|----------------------------|

by the way......
e---------------------------|----------------------------|
B---------------------------|----------------------------|
G---------------------------|----------------------------|
D---10-10-10-10-10-10-10-10-|---5--5--5--5--5--5--5--5---|
A----8--8--8--8--8--8--8--8-|---3--3--3--3--3--3--3--3---|
E---------------------------|----------------------------|

e---------------------------|----------------------------|
B---------------------------|----------------------------|
G---------------------------|----------------------------|
D----2--2--2--2--2--2--2--2-|---2--2--2--2--2--2--2--2---|
A----0--0--0--0--0--0--0--0-|---0--0--0--0--0--0--0--0---|
E---------------------------|----------------------------|

Dani the girl.......
e---------------------------|----------------------------|
B---------------------------|----------------------------|
G---------------------------|---9--9--9--9--9--9--9--9---|
D---10-10-10-10-10-10-10-10-|--10-10-10-10-10-10-10-10---|
A----8--8--8--8--8--8--8--8-|----------------------------|
E---------------------------|----------------------------|

e---------------------------|----------------------------|
B---------------------------|----------------------------|
G----9--9--9--9--9--9--9--9-|---9--9--9--9--9--9--9--9---|
D----7--7--7--7--7--7--7--7-|---7--7--7--7--7--7--7--7---|
A---------------------------|----------------------------|
E---------------------------|----------------------------|


Chorus: F  C  Dm  ,  F  C  Am  A#

For the verses just play the G, B, and E strings muted on the 10th fret.

that is all.submit any comments of corrections to jm2k@hotmail.com



*****************************************************************
*****************************************************************
Version 2:

By Luca

verse:
|--------------------------------------------------------------------------|
|--------------------------------------------------------------------------|
|-1010101010101010-9-9-9-9-9-9-9-9-----------------------------------------|
|-1010101010101010101010101010101077777777777777---------------------------|
|---------------------------------77777777777777---------------------------|
|--------------------------------------------------------------------------|

|--------------------------------------------------------------------------|
|--------------------------------------------------------------------------|
|-1010101010101010-9-9-9-9-9-9-9-9--------------9-9-7-7--------------------|
|-1010101010101010101010101010101077777777777777---------------------------|
|---------------------------------77777777777777---------------------------|
|--------------------------------------------------------------------------|

|--------------------------------------------------------------------------|
|--------------------------------------------------------------------------|
|-1010101010101010-9-9-9-9-9-9-9-9-----------------------------------------|
|-1010101010101010101010101010101077777777777777---------------------------|
|---------------------------------77777777777777---------------------------|
|--------------------------------------------------------------------------|

|--------------------------------------------------------------------------|
|---------------------------101010101010-----------------------------------|
|-1010101010101010-9-9-9-9-9-9-9-9-9-9-9-----------------------------------|
|-10101010101010101010101010101010101010-----------------------------------|
|--------------------------------------------------------------------------|
|--------------------------------------------------------------------------|

Riff2
|-xxx-xxx-xxxx-xxx-xx10xxx10xxxx|(131313)|
|-xxx-xxx-xxxx-xxx-xx10xxx10xxxx|-131313-|
|-xxx-xxx-xxxx-xxx-xx10xxx10xxxx|-121212-|
|-------------------------------|--------|
|-------------------------------|--------|
|-------------------------------|--------|

chorus:F C Dm

Outro: F C Dm x 2  sib Dm


*****************************************************************
*****************************************************************
Version 3:

tab by little pea


Intro 
e------------------------------------------- 
B-------------------------------------------G
D---10------10--------2--------------------- 
A---8--------7---------0-------------------- 
E------------------------------------------- 

Standing in line... 
e------------------------------------------- 
B------------------------------------------- 
G------------------------------------------- 
D--10-------10----------2------7-7-------5-5 
A--8---------7-----------0------------------ 
E------------------------------------------- 

By the way... 
e------------------------------------------- 
B------------------------------------------- 
G------------------------------------------- 
D-----10---------5-----------2-------------- 
A-----8----------3-----------0--------------E

Dani the girl... 
e------------------------------------------- 
B------------------------------------------- 
G---------------9-------9D-----10-----10-------7- 
A-----8------------------------------------- 
E------------------------------------------- 

Couplet: 
e------X-----X----X---X---------10---10---(4x)---------13-13-13 
B-----X-----X----X---X----------10---10-----13-13-13- 
G-----X----X-----X---X----------10---10----- 
D-----X----X-----X---X---------------------- 
A-----X----X-----X---X---------------------- 
E-----X----X-----X---X---------------------- 

Refrain: 
e------------------------------------------- 
B------------------------------------------- 
G------------------------------------------- 
D---10-----5-----7-------------------------- 
A---8------3------5------------------------- 
E------------------------------------------- 

e------------------------------------------- 
B----------------------------------------- 
G------------------------------------------ 
D---10---5---2----3------------------------- 
A---8----3----0----1------------------------ 
E------------------------------------------- 

Couplet (idem) 

Refrain 
e------------------------------------------ 
B------------------------------------------- 
G---------------------------------------- 
D---10---10-----2--------------------------- 
A---8-----7------0-------------------------- 
E----------------------------------------- 

e------------------------------------------- 
B------------------------------------------- 
G------------------------------------------- 
D---10-----5-----2------------------------ 
A---8------3------0------------------------- 
E------------------------------------------- 

e------------------------------------------- 
B------------------------------------------- 
G-------------9-------9--------------------- 
D----10----10-------7----------------------- 
A----8-------------------------------------- 
E------------------------------------------- 

e------------------------------------------- 
B------------------------------------------- 
G------------------------------------------- 
D-----10-----10------2---------------------- 
A-----8------7--------0---------------------E--

Couplet (idem) 

Dernier refrain 
Les accords sont FA DO RE et FA DO LA Sib 
Il reprend cette suite 3x. 
Bon amusement. 

*****************************************************************
*****************************************************************
Version 4:

Transcribed By: Allen Sinani

Man this is good to say that i'm the first one to tab this song.
The peppers rule!!!

Any questions, corrections or requests e-mail me at
californication_alen@hotmail.com

Intro:

|----------------------------------------------------|
|----------------------------------------------------|
|----------------------------------------------------|
|--10-10-10-10-10-10-10-10-10-10-10-10-10-10-10-10---|
|----------------------------------------------------|
|----------------------------------------------------|

|----------------------------------------------------|
|----------------------------------------------------|
|----------------------------------------------------|
|----------------------------------------------------|
|----------------------------------------------------|
|--12-12-12-12-12-12-12-12-12-12-12-12-12-12-12-12---|

|----------------------------------------------------|
|----------------------------------------------------|
|----------------------------------------------------|
|--10-10-10-10-10-10-10-10---------------------------|
|----------------------------------------------------|
|---------------------------8--8--8--8--8--8--8--8---|

|----------------------------------------------------|
|----------------------------------------------------|
|----------------------------------------------------|
|--------------------------------------14-14-12-12---|
|----------------------------------------------------|
|--12-12-12-12-12-12-12-12-12-12-12-12---------------|


|----------------------------------------------------|
|----------------------------------------------------|
|----------------------------------------------------|
|--10-10-10-10-10-10-10-10---------------------------|
|--------------------------10-10-10-10-10-10-10-10---|
|----------------------------------------------------|

|----------------------------------------------------|
|----------------------------------------------------|
|----------------------------------------------------|
|----------------------------------------------------|
|----------------------------------------------------|
|--12-12-12-12-12-12-12-12-12-12-12-12-12-12-10-10---|

|----------------------------------------------------|
|----------------------------------------------------|
|----------------------------------------------------|
|--------------------------14-14-14-14-14-14-14-14---|
|----------------------------------------------------|
|--8--8--8--8--8--8--8--8----------------------------|

|----------------------------------------------------|
|----------------------------------------------------|
|--14-14-14-14-14-14-14-14-14-14-14-14-14-14-14-14---|
|----------------------------------------------------|
|----------------------------------------------------|
|----------------------------------------------------|



Chorus:
 16x
|---|--10-10--------------10-10----------------------|
|---|--10-10--------------10-10-----13-13-13-13-13---|
|-x-|--10-10--------------10-10-----10-10-10-10-10---|
|-x-|------------------------------------------------|
|-x-|------------------------------------------------|
|---|------------------------------------------------|
The X's are produced by a Electro-Harmonix micro synthesizer effect

Verse:
F C Dm

  F   C   Dm
|-1-|-0-|-1-|
|-1-|-1-|-3-|
|-2-|-0-|-2-|
|-3-|-2-|-0-|
|-3-|-3-|---|
|-1-|---|---|


F C A Bm
  F   C   A
|-1-|-0-|-0-|-1-|
|-1-|-1-|-1-|-3-|
|-2-|-0-|-2-|-3-|
|-3-|-2-|-2-|-3-|
|-3-|-3-|-0-|-1-|
|-1-|---|---|---|

Finish With A:

 Dm
|-5-|
|-6-|
|-7-|
|-7-|
|-5-|
|---|

***********************************************************************************
***********************************************************************************

Version 5

Author/Artist: Red Hot Chili Peppers
Title: By the Way
Album: By the Way
Transcribed by: Chris Valente
Email: RedHotMetallica@aol.com

It's impossible to play this song and have it sound right,
if you don't play with a bass and have reverb. So do it!
BTW this is pretty much how John plays it,
according to all the live videos and my ears.
Intro/Bridge

------------------------------------------------------------------------------
------------------------------------------------------------------------------
------------------------------------------------------------------------------
-10-10-10-10-10-10-10-10-10-10-10-10-10-10-10-10------------------------------
--8--8--8--8--8--8--8--8--8--8--8--8--8--8--8--8------------------------------
------------------------------------------------------------------------------
                                                                              

------------------------------------------------------------------------------
------------------------------------------------------------------------------
------------------------------------------------------------------------------
------------------------------------------------------------------------------
--7-7-7-7-7-7-7-7-7-7-7-7-7-7-7-7---------------------------------------------
--5-5-5-5-5-5-5-5-5-5-5-5-5-5-5-5---------------------------------------------
                                                                              

------------------------------------------------------------------------------
------------------------------------------------------------------------------
--------------------------9--9--9--9--9--9--9--9------------------------------
-10-10-10-10-10-10-10-10-10-10-10-10-10-10-10-10------------------------------
--8--8--8--8--8--8--8--8--8--8--8--8--8--8--8--8------------------------------
------------------------------------------------------------------------------
  Standin' in line to see the show tonight and theres                         

--------------------------|---------------------------------------------------
--------------------------|---------------------------------------------------
--------------------------|-9-9-7---------------------------------------------
--------------------------|-------10------------------------------------------
-7-7-7-7-7-7-7-7-7-7-7-7--|---------------------------------------------------
-5-5-5-5-5-5-5-5-5-5-5-5--|---------------------------------------------------
  A light on heavy glow     Play above 2 bars twice, second time do fill      

------------------------------------------------------------------------------
------------------------------------------------------------------------------
------------------------------------------------------------------------------
-10-10-10-10-10-10-10-10------------------------------------------------------
--8--8--8--8--8--8--8--8-10-10-10-10-10-10-10-10------------------------------
--------------------------8--8--8--8--8--8--8--8------------------------------
  By the Way I tried to say I'd                                               

------------------------------------------------------------------------------
------------------------------------------------------------------------------
------------------------------------------------------------------------------
------------------------------------------------------------------------------
-7-7-7-7-7-7-7-7-7-7-7-7-7-7-7-7----------------------------------------------
-5-5-5-5-5-5-5-5-5-5-5-5-5-5-5-5----------------------------------------------
  Be there, waiting for...                                                    

------------------------------------------------------------------------------
--------------------------9--9--9--9--9--9--9--9------------------------------
-------------------------10-10-10-10-10-10-10-10------------------------------
-10-10-10-10-10-10-10-10-10-10-10-10-10-10-10-10------------------------------
--8--8--8--8--8--8--8--8------------------------------------------------------
------------------------------------------------------------------------------
  Annie the girl is singing song to me                                        

------------------------------------------------------------------------------
-10-10-10-10-10-10-10-10-10-10-10-10-10-10-10-10------------------------------
--9--9--9--9--9--9--9--9--9--9--9--9--9--9--9--9------------------------------
--7--7--7--7--7--7--7--7--7--7--7--7--7--7--7--7------------------------------
------------------------------------------------------------------------------
------------------------------------------------------------------------------
  Beneath the marquee...              OVERLOAD!!!                             

-x-x-x-x-x-x-x-x-x-x-x-x-x-x-x-x-x-x-x-x-x-x-x-x-x-x-x-x-|--------------------
-x-x-x-x-x-x-x-x-x-x-x-x-x-x-x-x-x-x-x-x-x-x-x-x-x-x-x-x-|-13---13--13-1313---
-x-x-x-x-x-x-x-x-x-x-x-x-x-x-x-x-x-x-x-x-x-x-x-x-x-x-x-x-|--------------------
---------------------------------------------------------|--------------------
---------------------------------------------------------|--------------------
---------------------------------------------------------|--------------------
                                                           Fill 1             

-10-10-x-x-x-x-x-x-x-x-x-x-x-x-x-x-x-x-x-x-x-x-x-x-x-x-x-|-1010101010101010---
-10-10-x-x-x-x-x-x-x-x-x-x-x-x-x-x-x-x-x-x-x-x-x-x-x-x-x-|-1010101010101010---
-10-10-x-x-x-x-x-x-x-x-x-x-x-x-x-x-x-x-x-x-x-x-x-x-x-x-x-|-1010101010101010---
---------------------------------------------------------|--------------------
---------------------------------------------------------|--------------------
---------------------------------------------------------|--------------------
 Chorus/Outro                                              Fill 2             

--1--|--3--|--5--|-----|--1--|--3--|--0--|--1---------------------------------
--1--|--5--|--6--|-----|--1--|--5--|--1--|--3---------------------------------
--2--|--5--|--7--|-----|--2--|--5--|--2--|--3---------------------------------
--3--|--5--|--7--|-----|--3--|--5--|--2--|--3---------------------------------
--3--|--3--|--5--|-----|--3--|--3--|--0--|--1---------------------------------
--1--|-----|-----|-----|--1--|-----|-----|------------------------------------
  F     C     Dm    %     F     C     Am    Bb

Lascia un commento

Facebook Auto Publish Powered By : XYZScripts.com