Cabron
from "By The Way"
Music by KiedisFleaFruscianteSmith
Warner Bros. Music 2002


****************************************************************
Version 1 :
Transcripted by: jm2k


Capo 7th fret

Intro

-|----------3-----------0---
-|----------3-----------0---
-|-4-2-0----0-----------0---
-|-------2--0--5-4-2-0--2---
-|----------2-----------2---
-|----------3-----------0---

Verses
-|--3----0---
-|--3----0---
-|--0----0---
-|--0----2---
-|--2----2---
-|--3----0---
(keep strumming these two chords)

Chorus
-|--3----5---
-|--5----7---
-|--5----7---
-|--5----7---
-|--3----5---
-|--3----5---
same pattern, just different chords)

that is all.submit any comments of corrections to jm2k@hotmail.com


****************************************************************
****************************************************************
Version 2 :
Transcripted By Mike Gibbons


---------2------0-------------------------------------2-
-----------------------3--------2--------3----------3---
---------------------------------------------------2----
----------------------------------------------------0---
-----------------------------------------------------0--
-----------------------------------------------------0--


---------0-------------------------------------------2--
------------3-------2----------------------------3------
----------------------------2---------------------4-----
------------------------------------4-------------4-----
---------------------------------------------------2----
----------------------------------------------------2---

D                Bm            

cabron.......Cabron

G                     A

Im small but im strong....

D                Bm

If you want me too

Main riff
 4/4
  Gtr I
|-2-0--------2--0----------2----|
|-----3-2-3--3----3-2------3----|
|------------2--------2----4----|
|------------0----------4--4----|
|------------0-------------2----|
|------------0-------------2----|

******************************************************************
******************************************************************

Version 3:

Red Hot Chili PEppers
Cabron
By the Way
Treanscribed by Chris Valente
Email: RedHotMetallica@aol.com

This is RIGHT! Capo 7th fret.
Intro and chorus is irrelevant to capo.

Intro

|---17----------14-------------
|---15----------15-------------
|---14----------16-------------
|---16----------16-------------
|---------------14-------------
|------------------------------
 
|------------------------------
|-------12------12----12---14--
|----------12-----12----12-14--
|----12--------------------14--
|-10----------10----10-----12--
|------------------------------

Verses

|-----------3-------------0----
|-----------3-------------0----
|--4-2-0----0--2-0--------0----
|--------4--0------4-0----2----
|-----------2-------------2----
|-----------3-------------0----

Chorus Part 1
|------------------
|--12---------14---
|--12---------14---
|--12---------14---
|--10---------12---
|------------------

Chorus Part 2

|-17-----14-12--------14-------
|-15-----------15-14--15-------
|-14------------------16-------
|-16------------------16-------
|---------------------14-------
|------------------------------

Lascia un commento

Facebook Auto Publish Powered By : XYZScripts.com