Album: Californication
Song: Californication

Intro
G|------9-9-7h9p7-5-----7-7-5--|------9-9-7h9p7-5-----10-10-7--| 
D|--7-7-------------3-3--------|--7-7-------------3-3----------| 
A|-----------------------------|-------------------------------| 
E|-----------------------------|-------------------------------| 

Verse 1
G|------9-9-7h9p7-5-----7-7-5--|------9-9-7h9p7-5-----10-10-7--| 
D|--7-7-------------3-3--------|--7-7-------------3-3----------| 
A|-----------------------------|-------------------------------| 
E|-----------------------------|-------------------------------| 

G|-------------------| 
D|-------------------| 
A|--3-3---------5-5--| 
E|------3-3-1-1------| 

G|------9-9-7h9p7-5-----7-7-5--|------9-9-7h9p7-5-----10-10-7--| (x2) 
D|--7-7-------------3-3--------|--7-7-------------3-3----------| 
A|-----------------------------|-------------------------------| 
E|-----------------------------|-------------------------------| 

G|-------------------| 
D|-------------------| 
A|--3-3---------5-5--| 
E|------3-3-1-1------| 

Chorus 1
G|---------------------4-5--|------------------5-4-----|---------------------4-5--|-------------7/9-7-5-4--| (x2) 
D|--7--7-7-7--7-7--7-7------|--3--3-3-3--3-3--3-----5--|--7--7-7-7--7-7--7-7------|--3--3-3-3--3-----------| 
A|--------------------------|--------------------------|--------------------------|------------------------| 
E|--------------------------|--------------------------|--------------------------|------------------------| 

G|---------------------4-5--|------------------5-4-----|---------------------4-5--|-------------------------------| 
D|--7--7-7-7--7-7--7-7------|--3--3-3-3--3-3--3-----5--|--7--7-7-7--7-7--7-7------|--3--3-3-3--3-3--3-3-3-3-3-3---| 
A|--------------------------|--------------------------|--------------------------|-------------------------------| 
E|--------------------------|--------------------------|--------------------------|-------------------------------| 

G|------------------------------| 
D|------------------------------| 
A|--3-3-----5-5-----3-3---2-3-5-| 
E|------3-3-----5-5-----3-------| 

Verse 2 (x2)
G|------9-9-7h9p7-5-----7-7-5--|------9-9-7h9p7-5-----10-10-7--| (x2) 
D|--7-7-------------3-3--------|--7-7-------------3-3----------| 
A|-----------------------------|-------------------------------| 
E|-----------------------------|-------------------------------| 

G|-------------------| 
D|-------------------| 
A|--3-3---------5-5--| 
E|------3-3-1-1------| 

Chorus 2
G|---------------------4-5--|------------------5-4-----|---------------------4-5--|--------------5-5-4-7----| (x2) 
D|--7--7-7-7--7-7--7-7------|--3--3-3-3--3-3--3-----5--|--7--7-7-7--7-7--7-7------|--3--3-3-3--3---------5--| 
A|--------------------------|--------------------------|--------------------------|-------------------------| 
E|--------------------------|--------------------------|--------------------------|-------------------------| 

G|---------------------4-5--|------------------5-4-----|---------------------4-5--|--------------10--10-10-10-10-10-10--| (x2) 
D|--7--7-7-7--7-7--7-7------|--3--3-3-3--3-3--3-----5--|--7--7-7-7--7-7--7-7------|--3--3-3-3--3------------------------| 
A|--------------------------|--------------------------|--------------------------|-------------------------------------| 
E|--------------------------|--------------------------|--------------------------|-------------------------------------| 

G|-------------------|---------------------|-------------------|-----------------| 
D|-------------------|-------------5--5-5--|-------------------|-----------------| 
A|--3-3-----5-5------|--3-3----------------|--3-3-----5-5------|--3-3---2-3-5----| 
E|------3-3-----5-5--|------3-3--3---3-3---|------3-3-----5-5--|------3----------| 

Solo (Figure it out yourself)
Verse 3 (First half of 2nd Verse)
Chorus 3 (Chorus 2)

Lascia un commento

Facebook Auto Publish Powered By : XYZScripts.com