Californication

Intro(Main Riff):

e  -----------------------------------------------
b  -----------------------------------------------
g  ------4-5--------2------------------------------
d  ----2----------5-------------------------------
a  --0----------3---------------------------------
E  -----------1-----------------------------------

Other bit:

e  ---------------------------------------5-------
b  ------5--------3---------1-------------6-------
g  ---------------------------------------5-------
d  ----5---5---------------------------7----------
a  --3----------5---5-----3---3------5------------
E  -----------3---------1-------------------------

Pre-Chorus

Strum these chords

e  --0--0-----------------------------------------
b  --1--1-----------------------------------------
g  --2--2-----------------------------------------
d  --2--3-----------------------------------------
a  -----------------------------------------------
E  -----------------------------------------------

Chorus:

e  --3--5--5--5---------------------------------------
b  --5--5--7--5--------------------------------------
g  --5--5--7--5--------------------------------------
d  --5--7--7--7-------------------------------------
a  --3--7--5--7--------------------------------------
E  -----5-----5-------------------------------------

Solo:

e  -----9-----------------------------------------
b  --10-------------------------------------------
g  --------11b-11--11-11-11p9---------------9-11b-
d  ----------------------------11-11---9-11-------
a  -----------------------------------------------
E  -----------------------------------------------

e  -----------9-12-14-----9-12-14b-14--17-16-14-12
b  --------10----------10-------------------------
g  --9--------------------------------------------
d  -----11----------------------------------------
a  -----------------------------------------------
E  -----------------------------------------------

e  --14-12-9-12-9--9---9---9----12-9-14b-12----12-
b  ----------------12b-12b-12b--------------12----
g  -----------------------------------------------
d  -----------------------------------------------
a  -----------------------------------------------
E  -----------------------------------------------

e  -----------12-10-9-----------------------------
b  --14-12------------10--------------------------
g  --------14-------------------------------------
d  -----------------------------------------------
a  -----------------------------------------------
E  -----------------------------------------------

Lascia un commento

Facebook Auto Publish Powered By : XYZScripts.com