Red Hot Chili Peppers
Castles Made of Sand (Jimi Hendrix)

Tabbed by Neil Mayagoitia
--------------------------------------------------------------------

  T = Use thumb to hold note


e:--53--3/5--5/8--85--5/10--108--85--53--35--3---|--------|
B:--31--13--36--63--38----86--63--31--13---3--|--------|
G:--0------------------------------------------------0-|--------|
D:--53--35--58--85--510--108--85--53--35------|--------|
A:--X--------------------------------------------------|--------|
E:--31--13--36--63--38----86--63--31--13------|--3--3--|
    T




e:------------------------------------------|
B:-------------------7h10p7-----------------|
G:---------------------------7-----------7-|
D:--------------79----------9--7-----7--7-|
A:-----------5---------------------9--------|
E:--3-3-57---------------------------------|





e:--------------------------------------|
B:--------------------------------------|
G:----------5--5--5--5-----5--------5--|
D:----------5--5--7--5--5--5--------5--|
A:-------3--------------8--------8------|
E:--3/5-----------------------6---------|




             Repeat this measure
e:-----3----------------------------------|
B:-----3----------------------------------|
G:-----4-------3--3-------5--5--------5--o|
D:-----5-------3--3-------5--5--------5--o|
A:-----5--3h5--------5/7------------------|
E:--3--3------------------------6--6------|




  Verse 1

e:-----1--1--1-----------------------------------------7---7---7-7-|
B:-----1--1--1-------------------------------5---------8---8---8-8-|
G:-------------------5h7--7b(9)b(7)p5--------5---------7---7---7-7-|
D:-----3--3--3-------------------------7--7-----7-----9---9---9-9-|
A:-----3--3--3-----------------------------------------7---7---7-7-|
E:--1--1--1--1--1/5---------------------------------0----0---0-----|
    T  T  T  T  T





e:---1-----3--------3-------3--3----------------3------------------------|
B:---1-----5--------3--3h5--5--5----------------3------------------------|
G:---2-----5--------4---------------------------4------------------------|
D:---3-----5--------5------------------3--------5--------------5h7p5-----|
A:---3--3--3--------5-------------3h5-----------5---------5h7---------7--|
E:1--1--------3--3--3---------------------3--3--3--3h5/7-----------------|





e:-----1--1---1-------------0--------------7-----7---------------|
B:-----1--1---1-------------0--------------8-----8---------------|
G:-----2--0h2-2-----5--2/4-----4/2--0------7-----7-----7h9h7-----|
D:-----3--3---3-----5----------------------9-----9------------9--|
A:-----3--3---3----------------------------7-----7---------------|
E:--1--1--1---1--0----------------------0--0--0--0--0------------|
    T  T  T   T





e:-----1-----3--------3------------------------------3-----3h5p3--3--3--|
B:-----1-----5--------3------------------------3---------------------3--|
G:-----2-----5--------4--------4-----4h5p4--------4-----4------------4--|
D:-----3-----5--------5-----------5---------5------------------------5--|
A:-----3--3--3--------5-----5----------------------------------------5--|
E:--1--1--------3--3--3--3-------------------------------------------3--|




  Chorus

e:---------------------------------------------------------------------------|
B:---------------------7h10p7------------------------------------------------|
G:-----------------------------7-----------7---------5--5--5--5-----5-----5|
D:----------------7/9----------9--7-----7--7---------5--5--7--5--5--5-----5|
A:-------------5---------------------9-------------3--------------8------8---|
E:--3--3--5/7---------------------------------3/5----------------------6-----|





          Repeat this measure
e:-------3----------------------------------|
B:-------3----------------------------------|
G:-------4-------3--3-------5--5--------5-o|
D:-------5-------3--3-------5--5--------5-o|
A:-------5--3h5--------5/7------------------|
E:----3--3------------------------6--6------|



  Verse 2

e:----1--1--1-----5-----5----5-5--------7--7---------------------|
B:----1--1--1-----5-----5----5-5--------8--8h10p8--8--8----------|
G:----2--2--2-----5-----5----5-5--------7--7-------9--7h9p7--7--|
D:----3--3--3-----7-----7----7-7--------9----------9--9------9--|
A:----3--3--3-----7-----7----7-7--------7------------------------|
E:-1--1--1--1-/5--5--5--5--5-5-5-5--0---------------------------|
   T  T  T  T  T  T  T  T  T T T T




e:-----1-----3--------3--3--3----3----------|
B:-----1-----5--------3--3--3h5--5--3-------|
G:-----2-----5--------4-------------2h4--2p0|
D:-----3-----5--------5---------------------|
A:-----3--3--3--------5---------------------|
E:--1--1--------3--3--3---------------------|





e:-------3/--15--15--15--15-----12-----12--|
B:-------3/--15--15--15--15h17--12-----12--|
G:-------4/--16--16--16--16-----12h14--12--|
D:------------------------------------------|
A:------------------------------------------|
E:-3--3-------------------------------------|
   T  T





e:-----1--1---1-----5--------12--12----7-----7-------------|
B:-----1--1---1-----5--------12--12----8-----8-------------|
G:-----2--0h2-2-----5--------12--12----7-----7--7h9p7--7--|
D:-----3--3---3-----7--------14--14----9-----9--9------9--|
A:-----3--3---3-----7--------14--14----7-----7-------------|
E:--1--1--1---1--5--5--5--5----------0-----0----------------|
    T  T  T   T  T  T  T  T




e:-----1-----3--------3------------------------------3--3--3--3--|
B:-----1-----5--------3------------------------3--------3--3--3--|
G:-----2-----5--------4--------4-----4h5p4--------4-----4--4--4--|
D:-----3-----5--------5-----------5---------5-----------------5--|
A:-----3--3--3--------5-----5---------------------------------5--|
E:--1--1--------3--3--3--3------------------------------------3--|




  Chorus

e:------------------------------------------|
B:----------------------7/10----------------|
G:----------------------------7-----------7|
D:----------------7/10--------9--7-----7--7|
A:-------------5--------------------9-------|
E:--3--3--5/7-------------------------------|





e:-------------------------------------|
B:-------------------------------------|
G:---------5--5--5--5-----5--------5--|
D:---------5--5--7--5--5--5--------5--|
A:------3--------------8--------8------|
E:-3/5-----------------------6---------|





      Repeat this measure
e:-----3-----------------------------------|
B:-----3-----------------------------------|
G:-----4-------3--3-------5--5--------5--o|
D:-----5-------3--3-------5--5--------5--o|
A:-----5--3h5--------5/7-------------------|
E:--3--3------------------------6--6-------|



  Solo

e:---------------------------------------------------------|
B:---------------------------------------------------------|
G:--12/1512--12~--12~--125--5~--5~--3/5--5~--5~--5-------|
D:----------------------------------------------------53/5|
A:---------------------------------------------------------|
E:---------------------------------------------------------|





                   Played during 1st part of verse 3
e:------------------------------------------15--1210/12~-|
B:------------------------------10--12--15----------------|
G:-/12--10/12--5~--5~--5~--/12----------------------------|
D:--------------------------------------------------------|
A:--------------------------------------------------------|
E:--------------------------------------------------------|



  Verse 3

e:-----5-----5--5------------------7--------------------------|
B:-----5-----5--5------------------8--------------7h10p7------|
G:-----5-----5--5-----5h7p5--5-----7--------7--9----------7--|
D:-----7-----7--7-----7------7-----9--7--9----------------9--|
A:-----7-----7--7------------------7--------------------------|
E:--5--5--5--5--5--5------------0-----------------------------|
    T  T  T  T  T  T




e:-----1-----3--------3-----------------------------3------------------------|
B:-----1-----5--------3-----------------------------3------------------------|
G:-----2-----5--------4-----------------------------4------------------------|
D:-----3-----5--------5-----------------------------5--5h7p5-----5-----------|
A:-----3--3--3--------5-------5--5-------5-5-------5---------7-----7--5-----|
E:--1--1--------3--3--3--5h7--------5h7-------3--3--3---------------------7-|





e:-|-----1--1--1-----5--------5--5-5---------7--7-7---------7--|
B:-|-----1--1--1-----5--------5--5-5---------8--8-8---------8--|
G:-|-----2--2--2-----5--------5--5-5---------7--7-7---------7--|
D:-|-----3--3--3-----7--------7--7-7---------9--9-9-----7h9----|
A:-|-----3--3--3-----7--------7--7-7---------7--7-7------------|
E:-|--1--1--1--1--5--5--5--5--5--5-5--5--0----------0---------|
      T  T  T  T  T  T  T  T  T  T T  T





e:-----1-----3--------3------------------------------3-----3h5p3--3--3--|
B:-----1-----5--------3------------------------3---------------------3--|
G:-----2-----5--------4--------4-----4h5p4--------4-----4------------4--|
D:-----3-----5--------5-----------5---------5------------------------5--|
A:-----3--3--3--------5-----5----------------------------------------5--|
E:--1--1--------3--3--3--3-------------------------------------------3--|





e:---------------------------------------------------|
B:---------------------------------------------------|
G:---------------------------------------------------|
D:---------------------------------------------------|
A:---------------------------------------------------|
E:---------------------------------------------------|
  And it doesn't really have to stop...




  Final Chorus

e:-------------------------------------------|
B:---------------------7h10p7----------------|
G:-----------------------------7-----------7|
D:----------------7/9----------9--7-----7--7|
A:-------------5---------------------9-------|
E:--3--3--5/7--------------------------------|




                                          Slow second time
e:-------------------------------------|---3--------------------------------|
B:-------------------------------------|---3--------------------------------|
G:---------5--5--5--5-----5--------5-|---4-------3-------5--5--------5--o|
D:---------5--5--7--5--5--5--------5-|---5-------3-------5--5--------5--o|
A:------3--------------8---------8-----|---5--3h5-----5/7-------------------|
E:-3/5------------------------6--------|3--3---------------------6--6-------|
                                        T  T




  Let Ring
e:--3--------|
B:--3--------|
G:--0--------|
D:--5--------|
A:--5--------|
E:--3--------|
    T



                                          Until fade out...
e:--53--3/5--5/8--85--5/10--108--8/12--1210--108--85--53--3/5--3------|
B:--31--1/3--3/6--63--3/8----86--6/10--108----86--63--31--1/3---3-----|
G:--0-------------------------------------------------------------------0----|
D:--53--3/5--5/8--85--5/10--108--8/12--1210--108--85--53--3/5---------|
A:--X------------------------------------------------------------------------|
E:--31--1/3--3/6--63--3/8----86--6/10--108----86--63--31--1/3---------|
    T


My first tab, and I'm 100% sure its correct.
Comments, correction, praise:  enjoiweezercp22@sbcglobal.net

Lascia un commento

Facebook Auto Publish Powered By : XYZScripts.com