Catholic School Girls Rule

Riff

e-|------------------------------------------------------|
B-|------------------------------------------------------|
G-|----------------------------------------5-------------|
D-|--5--7-7--x-x-x---5--7-7--x-x-x---5-5-7-5-7-5-5-7-7---|
A-|--5--7-7--x-x-x---5--7-7--x-x-x---5-5-7-3-7-5-5-7-7---|
E-|--3--5-5--x-x-x---3--5-5--x-x-x---3-3-5---5-3-3-5-5---|


e-|------------------------------------------------------|
B-|------------------------------------------------------|
G-|----------------------------------------7-------------|
D-|--5--7-7--x-x-x---5--7-7--x-x-x---5-5-7-7-7-5-5-7-7---|
A-|--5--7-7--x-x-x---5--7-7--x-x-x---5-5-7-5-7-5-5-7-7---|
E-|--3--5-5--x-x-x---3--5-5--x-x-x---3-3-5---5-3-3-5-5---|


Couplet 

e-|-------------------
B-|-------------------
G-|-----4/54-4-4---4-
D-|--7--4/54-4-4-7-4-
A-|--7--2/32-2-2-7-2-
E-|--5------------5---

Tablatures de Joe Le Tordu.

Lascia un commento

Facebook Auto Publish Powered By : XYZScripts.com