Cereal Song
This is how he plays the E chord:

e|---------------------------| 
B|---------------------------| 
G|---------------------------|
D|--4--4--4--6---6--6--6--4--| 
A|--7--7--7--7---7--7--7--7--|
E|---------------------------|

And the A chord goes:

e|-----------------------------------| 
B|-----------------------------------| 
G|-----------------------------------|
D|--9---9---9---11---11--11--11--9---| 
A|--12--12--12--12---12--12--12--12--|
E|-----------------------------------|

Or play the A in the same way on the 6th string 5th fret.
The chords should be strummed.

Lascia un commento

WP Facebook Auto Publish Powered By : XYZScripts.com