Dani California
Tabbed by Ryan.C

It's the chillis new single, I used the live acoustic song that’s floating about the net 
tab this. The song may sound different when the single’s released so ill probably 
it then.
This kinda sounds like “sweet home Alabama” but hey who cares.
As always you can send your suggestions to chhang7@hotmail.com

Verse

|---------------------------------|----------------------------|
|-----------------3-3-3-----------|---------------3-3-3--------|
|--2-2-2----------2-2-2—0h2-2-----|-2-2-2---------2-2-2--2-2-2-|
|--2-2-2---0-0-0--------0-----2-0-|-2-2-2--0-0-0---------2-2-2-|
|--0-0-0---2-2-2------------------|-0-0-0--2-2-2---------0-0-0-|
|----------3-3-3------------------|--------3-3-3---------------|

|----------------------------|---------------------------|
|---------------3-3-3--3-3-3-|--------------3-3-3--------|
|-2-2-2---------2-2-2--2-2-2-|-2-2-2--------2-2-2--2-2-2-|
|-2-2-2--0-0-0---------------|-2-2-2--0-0-0--------2-2-2-|
|-0-0-0--2-2-2---------------|-0-0-0--2-2-2--------0-0-0-|
|--------3-3-3---------------|--------3-3-3--------------|

This is hard to hear, but it’s based around this
|----------|
|----------|
|------7---|
|--7-5-----|
|----------|
|----------|


Chorus

|----------------------------------| (x4)
|----------------------------------|
|----------5-5-5--5/7-7-7----------|
|-3-3-3-3--5-5-5--5/7-7-7--5-5-5-5-|
|-3-3-3-3--3-3-3--3/5-5-5--5-5-5-5-|
|-1-1-1-1------------------3-3-3-3-|


2nd verse


Chorus

|----------------------------------| (x4)
|----------------------------------|
|----------5-5-5--5/7-7-7----------|
|-3-3-3-3--5-5-5--5/7-7-7--5-5-5-5-|
|-3-3-3-3--3-3-3--3/5-5-5--5-5-5-5-|
|-1-1-1-1------------------3-3-3-3-|

Bridge

|-----------------------------| (x4)
|-----------------------------|
|-----------------------------|
|-9-9-9--9-9-9--5-5-5--4-4-4--|
|-9-9-9--9-9-9--5-5-5--4-4-4--|
|-7-7-7--7-7-7--3-3-3--2-2-2--|

3rd verse

Just before the chorus there’s this slide part

|-------------------------|
|-3-3-3/-5-5-5-5----------|
|-2-2-2/-4-4-4-4--2-2-2---|
|-----------------2-2-2---|
|-----------------0-0-0---|
|-------------------------|

Then the chorus is repeated twice

Solo

|-------------------------------------|
|------6------------------------------|
|----5---7----------------------------|
|--7-------7-5br-3-5p3----------------|
|----------------------5-5-3-----3/5--|
|----------------------------3-1------|

|--------------------------8-8/10-|
|-----6---------------------------|
|---5---7---x-5-x-5-x-5-7~--------|
|-7-------7-----------------------|
|---------------------------------|
|---------------------------------|

|-------------------------------------|
|------6------------------------------|
|----5---7----------------------------|
|--7-------7-5br-3-5p3----------------|
|----------------------5-5-3-----3/5--|
|----------------------------3-1------|

|--------------------------8-8/10-|
|-----6---------------------------|
|---5---7---x-5-x-5-x-5-7~--------|
|-7-------7-----------------------|
|---------------------------------|
|---------------------------------|

|-8--10-8---10-8---10-8---10-8----|
|--------10-----10-----10------10-|
|---------------------------------|
|---------------------------------|
|---------------------------------|
|---------------------------------|

|-------------------------------------|
|------6------------------------------|
|----5---7----------------------------|
|--7-------7-5br-3-5p3----------------|
|----------------------5-5-3-----3/5--|
|----------------------------3-1------|

|--------------------------8-8/10-|
|-----6---------------------------|
|---5---7---x-5-x-5-x-5-7~--------|
|-7-------7-----------------------|
|---------------------------------|
|---------------------------------|

|-------------------------------------|
|------6------------------------------|
|----5---7----------------------------|
|--7-------7-5br-3-5p3----------------|
|----------------------5-5-3-----3/5--|
|----------------------------3-1------|

|---------------------|
|-----------5-5-5--7--|
|-10-10-10--5-5-5--7--|
|-10-10-10--5-5-5--7--|
|-8--8--8---3-3-3--5--|
|---------------------|

Lascia un commento

Facebook Auto Publish Powered By : XYZScripts.com