Deep Kick

Intro
  Slowly Q=88
  N.C.                               A7
 4/4
  Gtr I
  Wx4          W          W          W
|------------|----------|----------|------|
|------------|----------|----------|------|
|------------|----------|----------|------|
|------------|----------|----------|-5----|
|------------|----------|----------|-0----|
|------------|----------|----------|------|


               A5                      A7
  +W           W          +W           W
|------------|----------|------------|------|
|------------|----------|------------|------|
|------------|----------|------------|------|
|-(5)--------|-2--------|-(2)--------|-5----|
|-(0)--------|-0--------|-(0)--------|-0----|
|------------|----------|------------|------|


                   AsAadd9                      AsAadd9
               Gtr II
   W           E E E E +H      +W           E E E E +H
               | | | |  |       |           | | | |  |
               o o / /  /       /           o o / /  /

  +W           W               +W           W
|------------|---------------|------------|---------------|
|------------|---------------|------------|---------------|
|------------|---------------|------------|---------------|
|-(5)--------|-7-------------|-(7)--------|-7-------------|
|-(0)--------|-0-------------|-(0)--------|-0-------------|
|------------|---------------|------------|---------------|


                     AsAadd9                         AsAadd9
  +W            E  E E E +H       +W            E  E E E +H
   |            |  | | |  |        |            |  | | |  |
   /            o  o / /  /        /            o  o / /  /

  +W           +Q.     E +H       +W           +Q.     E +H
|------------|------------------|------------|------------------|
|------------|------------------|------------|------------------|
|------------|------------------|------------|------------------|
|-(7)--------|-(7)-----7-(7)----|-(7)--------|-(7)-----7-(7)----|
|-(0)--------|-(0)-----0-(0)----|-(0)--------|-(0)-----0-(0)----|
|------------|------------------|------------|------------------|


               N.C.(A)
  +W           W
   |
   /

             Gtr II
  +W           Q     E  E  +E   +E   E E
|------------|---------------------------|
|------------|---------------------------|
|------------|---------------------------|
|-(7)--------|------12-11-(11)-(11)-7-9-|
|-(0)--------|---------------------------|
|------------|-0-0---------(0)-----------|
|              E Q.        +H
|
|  W           W
|------------|---------------------------|
|------------|---------------------------|
|------------|---------------------------|
|------------|---------------------------|
|------------|---------------------------|
|------------|---------------------------|


                              A7
   W                           W
  +E  +E   E E +E   S S E E   +Q      E  E  +E   +E   E E
|---------------------------|-----------------------------|
|-------------------------0-|-(0)-------------------------|
|-----------------------4---|-----------------------------|
|-(9)-(9)-5-7-(7)-0h2-----|--------12-11-(11)-(11)-7-9-|
|---------------------------|-----------------------------|
|-(0)-----------------------|--0--0---------(0)-----------|
| +W                           E  Q.        +H
|
|                           Gtr I
|  W                           W
|---------------------------|-----------------------------|
|---------------------------|-----------------------------|
|---------------------------|-----------------------------|
|---------------------------|--5--------------------------|
|---------------------------|--0--------------------------|
|---------------------------|-----------------------------|


                                    A5
  +E  +E   E E +E  S    +S  +E  E   +E  E   E  E  +E   +E   E E
|---------------------------------|-----------------------------|
|---------------------------------|-----------------------------|
|---------------------------------|-----------------------------|
|-(9)-(9)-5-7-(7)-4b5==(4)r(4)-2-|-(2)----12-11-(11)-(11)-7-9-|
|---------------------------------|-----------------------------|
|-(0)-----------------------------|--0--0---------(0)-----------|
| +W                                 E  Q.        +H
|
| +W                                 W
|---------------------------------|-----------------------------|
|---------------------------------|-----------------------------|
|---------------------------------|-----------------------------|
|-(5)-----------------------------|--2--------------------------|
|-(0)-----------------------------|--0--------------------------|
|---------------------------------|-----------------------------|


                            A7
  +E  E  E E +E   S S E E   +Q      E  E  +E   E  E E
|-----------------------0-|-(0)-------------------------|
|-----------------------0-|-(0)-------------------------|
|---------------------4---|-----------------------------|
|-(9)-9-5-7-(7)-0h2-----|--------12-11-(11)-11-7-9---|
|-------------------------|-----------------------------|
|-(0)---------------------|--0--0---------(0)-----------|
| +W                         E  Q.        +H
|
| +W                         W
|-------------------------|-----------------------------|
|-------------------------|-----------------------------|
|-------------------------|-----------------------------|
|-(2)---------------------|--5--------------------------|
|-(0)---------------------|--0--------------------------|
|-------------------------|-----------------------------|


                         N.C.(A)
  +E  +E   E E +Q   Q     a  Q.      a  E  +Q     a  Q
|----------------------|---------------------------------|
|----------------------|---------------------------------|
|----------------------|---------------------------------|
|-(9)-(9)-5-7-(7)--7--|-11h12------11h12-(12)---11h12---|
|----------------------|-----0--0-0-----0---0--0-----0-0-|
|-(0)------------------|---------------------------------|
| +W                         E  E E     E   E  E     E E
|
| +W                         W
|----------------------|---------------------------------|
|----------------------|---------------------------------|
|----------------------|---------------------------------|
|-(5)------------------|---------------------------------|
|-(0)------------------|---------------------------------|
|----------------------|---------------------------------|


   +E   a  Q.      a  H         a  Q.     a  E  +Q    a  Q
|-----------------------------|-------------------------------|
|-----------------------------|-------------------------------|
|-----------------------------|-------------------------------|
|-(12)-11h12------11h12-------|-9h11------9h11-(11)---9h11----|
|---0------0--0-0-----0-0-0-0-|----0--0-0----0---0--0----0-0--|
|-----------------------------|-------------------------------|
|   E      E  E E     E E E E      E  E E    E   E  E    E E
|
|   W                              W
|-----------------------------|-------------------------------|
|-----------------------------|-------------------------------|
|-----------------------------|-------------------------------|
|-----------------------------|-------------------------------|
|-----------------------------|-------------------------------|
|-----------------------------|-------------------------------|


   +E  a  Q.     a  H         a Q.     a E +Q    a Q
|---------------------------|--------------------------|
|---------------------------|--------------------------|
|---------------------------|--------------------------|
|-(11)-9h11------9h11-------|-7h9------7h9-(9)---7h9---|
|---0-----0--0-0----0-0-0-0-|---0--0-0---0--0--0---0-0-|
|---------------------------|--------------------------|
|   E     E  E E    E E E E     E  E E   E  E  E   E E
|
|   W                           W
|---------------------------|--------------------------|
|---------------------------|--------------------------|
|---------------------------|--------------------------|
|---------------------------|--------------------------|
|---------------------------|--------------------------|
|---------------------------|--------------------------|


  +E  a Q.     a Q   a Q     a  Q.     a E +Q    a Q
|--------------------------|----------------------------|
|--------------------------|----------------------------|
|--------------------------|----------------------------|
|-(9)-7h9------7h9---7h9---|-5h=7------5h7-(7)---5h7----|
|--0----0--0-0---0-0---0-0-|----0--0-0---0--0--0---0-0--|
|--------------------------|----------------------------|
|  E    E  E E   E E   E E      E  E E   E  E  E   E E
|
|                        Gtr III
|                               <
|  W                            W
|--------------------------|----------------------------|
|--------------------------|----------------------------|
|--------------------------|----------------------------|
|--------------------------|----------------------------|
|--------------------------|---[0]----------------------|
|--------------------------|----------------------------|


                                      Faster Q=124
                                      Em7
                             Gtr I
   +E   a Q.     a Q   a Q              S  S   E   e e   S   S S  S  +S  S  S  S
|----------------------------||--------------------------------------------------|
|----------------------------||---------x--x--15--12----12--12-x-12-(12)-x-15-12-|
|----------------------------||---------x--x--12--12----12--12-x-12-(12)-x-12-12-|
|--(7)--5h7------5h7---5h7---||--------------------------------------------------|
|---0-----0--0-0---0-0---0-0-||--------------------------------------------------|
|----------------------------||----------------------0---------------------------|
|   E     E  E E   E E   E E
|
|   <
|  +W                            a      E      Q.       +H
|----------------------------||--------------------------------------------------|
|----------------------------||--------15-----15-------(15)----------------------|
|----------------------------||-14b16-(14)---(14)------(14)----------------------|
|----------------------------||--------------------------------------------------|
|-([0])----------------------||--------------------------------------------------|
|----------------------------||--------------------------------------------------|


   S     S  E  e             e    S   S  S      S  +S     S  S      S
|---------------------------------------------------------------------|
|--x-----x-15-12-----------------12--12--x-----12-(12)----x-15-----12-|
|--x-----x-12-12-----------------12--12--x-----12-(12)----x-12-----12-|
|---------------------------------------------------------------------|
|---------------------------------------------------------------------|
|----------------------------0----------------------------------------|
|
|  TP                        TP   TP                TP
|  Q           E      a     +E   +E      E          E        E
|---------------------------------------------------------------------|
|-------------15------------------------15------------------15--------|
|-14pb16------14pb16-14b16-(14)-(14)----14pb16-----14pb16---14pb16----|
|---------------------------------------------------------------------|
|---------------------------------------------------------------------|
|---------------------------------------------------------------------|


   S     S  E  e      e       S   S  S      S  +S     S  S      S
|-----------------------------------------------------------------|
|--x-----x-15-12-------------12--12--x-----12-(12)----x-15-----12-|
|--x-----x-12-12-------------12--12--x-----12-(12)----x-12-----12-|
|-----------------------------------------------------------------|
|-----------------------------------------------------------------|
|---------------------0-------------------------------------------|
|
|  TP                 TP      TP                TP
|  Q           E      E      +E      E          E        E
|-----------------------------------------------------------------|
|-------------15--------------------15------------------15--------|
|-14pb16------14pb16-14pb16-(14)----14pb16-----14pb16---14pb16----|
|-----------------------------------------------------------------|
|-----------------------------------------------------------------|
|-----------------------------------------------------------------|


   S     S  E  e     e         S   S S  S  +S  S  S  S    S  S  S  S  S  S  S  S  S  S  S  S S  S  E
|------------------------------------------------------|----15-15-15-15-15-15-15--------------------------|
|--x-----x-15-12--------------12--12-x-12-(12)-x-15-12-|----14-14-14-14-14-14-14-12----12-12---15-12------|
|--x-----x-12-12--------------12--12-x-12-(12)-x-12-12-|-------------------------12----12-12---12-12------|
|------------------------------------------------------|--------------------------------------------------|
|------------------------------------------------------|--------------------------------------------------|
|--------------------0---------------------------------|--------------------------------------------------|
|
|  TP          TP              ~~~~
|  Q           E     E  a     +Q.                 E       S  S  S  S  S  S  S  S  S  e     S E     S  S
|------------------------------------------------------|--------------------------------------------------|
|-------------15-------15b17-(15)----------------------|-14-14-14-14-15-15-15-15-14-14----12------14-14---|
|-14pb16------14pb16-----------------------------------|-14-14-14-14-14-14-14-14-14-14----12------14-14---|
|------------------------------------------------------|--------------------------------------------------|
|------------------------------------------------------|--------------------------------------------------|
|------------------------------------------------------|--------------------------------------------------|


   S  S  E     e e  S  S S  S  +S  S  S  S    S  S  E     e  e  S  S S  S  +S  S  S  S
|------------------------------------------|-------------------------------------------|
|--x--x-15----12---12-12-x-12-(12)-x-15-12-|--x--x-15----12----12-12-x-12-(12)-x-15-12-|
|--x--x-12----12---12-12-x-12-(12)-x-12-12-|--x--x-12----12----12-12-x-12-(12)-x-12-12-|
|------------------------------------------|-------------------------------------------|
|------------------------------------------|-------------------------------------------|
|----------------0-------------------------|-----------------0-------------------------|
|
|  S  S  S  S  E E  S  e    S   E     S  S    S  S  S  S  E  E  S  e    S   e     S  S
|------------------------------------------|-------------------------------------------|
|-14-14-14-14-12---14-14-------------14-14-|-14-14-14-14-------14-14---12--12----14-14-|
|-14-14-14-14-12---14-14-------12----14-14-|-14-14-14-14-14-12-14-14---12--12----14-14-|
|--------------------------12--------------|-------------------------------------------|
|------------------------------------------|-------------------------------------------|
|------------------------------------------|-------------------------------------------|


   S  S  E     e      e   S      S S  S  +S  S  S  S
|----------------------------------------------------|
|--x--x-15----12---------12-----12-x-12-(12)-x-15-12-|
|--x--x-12----12---------12-----12-x-12-(12)-x-12-12-|
|----------------------------------------------------|
|----------------------------------------------------|
|---------------------0------------------------------|
|
|                         ~~~~~~
|  S  S  S  S  E     +E   Q               E     E
|----------------------------------------------------|
|-14-14-14-14-14b15-(14)-14pb15----------14---------|
|-14-14-14-14-14b15-(14)-----------------14---------|
|----------------------------------------------------|
|----------------------------------------------------|
|----------------------------------------------------|


   S   S  S  S  S  S  S  S  S  S   S  S  S  S  E    S  S   E   e      e  S  S  S  S  +S  S  S  S
|-----15-15-15-15-15-15-15-----------------------|-----------------------------------------------|
|-----14-14-14-14-14-14-14-12-----12-12----15-12-|--x--x--15--12--------12-12--x-12-(12)-x-15-12-|
|--------------------------12-----12-12----12-12-|--x--x--12--12--------12-12--x-12-(12)-x-12-12-|
|------------------------------------------------|-----------------------------------------------|
|------------------------------------------------|-----------------------------------------------|
|------------------------------------------------|--------------------0--------------------------|
|
|  ~~~                                   ~~            ~~~~~~~~~~~          ~~~~~~~~~~~~~
|  Q.                 E     S  E.        Q          S  E.     +S   S  E  S  E.        Q
|--------------------------14--------------------|-14-------------------14-----------------------|
|-12-----------------12-------12-----------------|----12-----(12)-12-12----12--------------------|
|---------------------------------------12-------|----------------------------------[12]---------|
|------------------------------------------------|-----------------------------------------------|
|------------------------------------------------|-----------------------------------------------|
|------------------------------------------------|-----------------------------------------------|


          S   S      E          e         e         S  S S         S   +S  S  S  S
|-----------------------------------------------------------------------------------|
|---------x---x-----15---------12------------------12-12-x--------12--(12)-x-15-12--|
|---------x---x-----12---------12------------------12-12-x--------12--(12)-x-12-12--|
|-----------------------------------------------------------------------------------|
|-----------------------------------------------------------------------------------|
|-----------------------------------------0-----------------------------------------|
|
|                                                      ~~
|  a     +S   E         S      +S   E        S      S  E    a     +S   +Q
|--------------------------------------------------14------14b15-(14)-(14)----------|
|-----------------------------------------------------12----------------------------|
|-14b16-(14)-14pb16----14pb16-(14)-14pb16---14pb16----------------------------------|
|-----------------------------------------------------------------------------------|
|-----------------------------------------------------------------------------------|
|-----------------------------------------------------------------------------------|


    S  S  E     e            e   S  S S  S  +S  S  S  S
|-------------------------------------------------------|
|---x--x-15----12---------------12-12-x-12-(12)-x-15-12-|
|---x--x-12----12---------------12-12-x-12-(12)-x-12-12-|
|-------------------------------------------------------|
|-------------------------------------------------------|
|----------------------------0--------------------------|
|
|                                ~~
|  +E     S  S  S  S  a     +E   H
|-(14)---14-12----12------------------------------------|
|--------------15----15b17-(15)-15----------------------|
|-------------------------------------------------------|
|-------------------------------------------------------|
|-------------------------------------------------------|
|-------------------------------------------------------|


   S  S  S  S  S  S         S   S  S      S      S      S      S      S      E               S  S  E     e     e     S  S S  S  +S    S  S  S
|----15-15-15-15-15--------15--15---------------------------------------------------------|------------------------------------------------------|
|----14-14-14-14-14--------14--14-12------------12-----12------------15-----12------------|--x--x-15----12----------12-12-x-12-(12)---x-15-12----|
|---------------------------------12------------12-----12------------12-----12------------|--x--x-12----12----------12-12-x-12-(12)---x-12-12----|
|-----------------------------------------------------------------------------------------|------------------------------------------------------|
|-----------------------------------------------------------------------------------------|------------------------------------------------------|
|-----------------------------------------------------------------------------------------|--------------------0---------------------------------|
|
|                                                                                                                    TP          TP
|  S  S  S  S  S  S  a     +S   S  S      S      S      S      S      S      S      S        S  S  S  S  S  S  S  S  Q           Q
|-12-12-12-12-12-12------------12-12-----12-----12-----12-----12-----12-----12-----12-----|-12-12-12-12-12-12-12-12-12----------14b15------------|
|-------------------15b17-(15)----15pb17-15pb17-15pb17-15pb17-15pb17-15pb17-15pb17-15pb17-|------------------------------------------------------|
|-----------------------------------------------------------------------------------------|------------------------------------------------------|
|-----------------------------------------------------------------------------------------|------------------------------------------------------|
|-----------------------------------------------------------------------------------------|------------------------------------------------------|
|-----------------------------------------------------------------------------------------|------------------------------------------------------|


    W
    S     S   E    e  e  S   S S  S  +S  S  S  S
|------------------------------------------------|
|---x-----x--15---12----12--12-x-12-(12)-x-15-12-|
|---x-----x--12---12----12--12-x-12-(12)-x-12-12-|
|------------------------------------------------|
|------------------------------------------------|
|---------------------0--------------------------|
|
|                        ~~~
|   E        +Q       E +Q            Q
|-(14)------(14)--------------------------------|
|--14pb15---(14)--------------------------------|
|--------------------/7-(7)-----------0----------|
|------------------------------------------------|
|------------------------------------------------|
|------------------------------------------------|


                                              Verse
                                               E7          F7 E7
                                               Gtr IV
   W                                           S S  E  S S  E  E   S  S S  S  S  S
                                               | |  |  | |  |  |   |  | |  |  |  |
                                               x x  /  x x  /  /   x  / x  x  /  /

   S S  E   e    e  S   S S  S  +S  S  S  S    S S  E  e    e  S S S  S S  S  S  S
|-------------------------------------------||---------------------------------------|
|--x-x-15--12------12--12-x-12-(12)-x-15-12-||-x-x-15-12------12---x-12-x-12-15-12---|
|--x-x-12--12------12--12-x-12-(12)-x-12-12-||-x-x-12-12---15-12---x-12-x-12-12-12---|
|-------------------------------------------||-------------15------------------------|
|-------------------------------------------||---------------------------------------|
|----------------0--------------------------||---------------------------------------|
|
|                   ~~~
|  Q       +E    E +Q            Q             W
|-12------(12)-----------------------------||---------------------------------------|
|-12------(12)------------------0----------||---------------------------------------|
|---------------/7-(7)-----------0----------||---------------------------------------|
|-------------------------------------------||---------------------------------------|
|-------------------------------------------||---------------------------------------|
|-------------------------------------------||---------------------------------------|


                F7 E7
    S S  E  S S  E  E   S  S S  S  S  S
    | |  |  | |  |  |   |  | |  |  |  |
    x x  /  x x  /  /   x  / x  x  /  /

    S S  E  e    e  S S S  S S  S  S  S
||--------------------------------------|
||o-x-x-15-12------12---x-12-x-12-15-12-|
||--x-x-12-12---15-12---x-12-x-12-12-12-|
||--------------15----------------------|
||o-------------------------------------|
||--------------------------------------|


              F7 E7
  S S  E  S S  E  E   S  S S  S  S  S
  | |  |  | |  |  |   |  | |  |  |  |
  x x  /  x x  /  /   x  / x  x  /  /

  S S  E  e    e  S S S  S S  S  S  S  4x
|--------------------------------------||
|-x-x-15-12------12---x-12-x-12-15-12-o||
|-x-x-12-12---15-12---x-12-x-12-12-12--||
|-------------15-----------------------||
|-------------------------------------o||
|--------------------------------------||


 Chorus
  Csus2                           Asus2
  Gtrs I, IV
  Q  E E +E E Q    E Q  E Q  Q    Q  E E +E E Q    E Q  E Q  Q
  |  | |  | | |    | |  | |  |    |  | |  | | |    | |  | |  |
  /  / /  / / /    / /  / /  /    /  / /  / / /    / /  / /  /

  W                W              W                W
|----------------|--------------|----------------|--------------|
|----------------|--------------|----------------|--------------|
|----------------|--------------|----------------|--------------|
|----------------|--------------|----------------|--------------|
|----------------|--------------|----------------|--------------|
|----------------|--------------|----------------|--------------|


    E7          F7 E7
    S S  E  S S  E  E   S  S S  S  S  S
    | |  |  | |  |  |   |  | |  |  |  |
    x x  /  x x  /  /   x  / x  x  /  /

    S S  E  e    e  S S S  S S  S  S  S
||--------------------------------------|
||o-x-x-15-12------12---x-12-x-12-15-12-|
||--x-x-12-12---15-12---x-12-x-12-12-12-|
||--------------15----------------------|
||o-------------------------------------|
||--------------------------------------|


              F7 E7
  S S  E  S S  E  E   S  S S  S  S  S
  | |  |  | |  |  |   |  | |  |  |  |
  x x  /  x x  /  /   x  / x  x  /  /

  S S  E  e    e  S S S  S S  S  S  S
|--------------------------------------||
|-x-x-15-12------12---x-12-x-12-15-12-o||
|-x-x-12-12---15-12---x-12-x-12-12-12--||
|-------------15-----------------------||
|-------------------------------------o||
|--------------------------------------||


  Csus2                           Asus2
  Gtrs I, IV
  Q  E E +E E Q    E Q  E Q  Q    Q  E E +E E Q    E Q  E Q  Q
  |  | |  | | |    | |  | |  |    |  | |  | | |    | |  | |  |
  /  / /  / / /    / /  / /  /    /  / /  / / /    / /  / /  /

  W                W              W                W
|----------------|--------------|----------------|--------------|
|----------------|--------------|----------------|--------------|
|----------------|--------------|----------------|--------------|
|----------------|--------------|----------------|--------------|
|----------------|--------------|----------------|--------------|
|----------------|--------------|----------------|--------------|


    E7          F7 E7
    S S  E  S S  E  E   S  S S  S  S  S
    | |  |  | |  |  |   |  | |  |  |  |
    x x  /  x x  /  /   x  / x  x  /  /

    S S  E  e    e  S S S  S S  S  S  S
||--------------------------------------|
||o-x-x-15-12------12---x-12-x-12-15-12-|
||--x-x-12-12---15-12---x-12-x-12-12-12-|
||--------------15----------------------|
||o-------------------------------------|
||--------------------------------------|


              F7 E7
  S S  E  S S  E  E   S  S S  S  S  S
  | |  |  | |  |  |   |  | |  |  |  |
  x x  /  x x  /  /   x  / x  x  /  /

  S S  E  e    e  S S S  S S  S  S  S
|--------------------------------------||
|-x-x-15-12------12---x-12-x-12-15-12-o||
|-x-x-12-12---15-12---x-12-x-12-12-12--||
|-------------15-----------------------||
|-------------------------------------o||
|--------------------------------------||


   Verse
    E7          F7 E7                                 F7 E7
    S S  E  S S  E  E   S  S S  S  S  S   S S  E  S S  E  E   S  S S  S  S  S
    | |  |  | |  |  |   |  | |  |  |  |   | |  |  | |  |  |   |  | |  |  |  |
    x x  /  x x  /  /   x  / x  x  /  /   x x  /  x x  /  /   x  / x  x  /  /

    S S  E  e    e  S S S  S S  S  S  S   S S  E  e    e  S S S  S S  S  S  S
||--------------------------------------|-------------------------------------|
||o-x-x-15-12------12---x-12-x-12-15-12-|-x-x-15-12------12---x-12-x-12-15-12-|
||--x-x-12-12---15-12---x-12-x-12-12-12-|-x-x-12-12---15-12---x-12-x-12-12-12-|
||--------------15----------------------|-------------15----------------------|
||o-------------------------------------|-------------------------------------|
||--------------------------------------|-------------------------------------|


              F7 E7
  S S  E  S S  E  E   S  S S  S  S  S
  | |  |  | |  |  |   |  | |  |  |  |
  x x  /  x x  /  /   x  / x  x  /  /

  S S  E  e    e  S S S  S S  S  S  S    3x
|----------------------------------------||
|-x-x-15-12------12---x-12-x-12-15-12---o||
|-x-x-12-12---15-12---x-12-x-12-12-12----||
|-------------15-------------------------||
|---------------------------------------o||
|----------------------------------------||


 Chorus
  Csus2                                  Asus2
  Gtrs I, IV
  Q   E E +E  E Q     E  Q   E Q   Q     Q   E E +E  E Q     E  Q  E Q   Q
  |   | |  |  | |     |  |   | |   |     |   | |  |  | |     |  |  | |   |
  /   / /  /  / /     /  /   / /   /     /   / /  /  / /     /  /  / /   /

  Gtr III
  Q.    E +Q    Q    +E  Q.    E E E E   Q.    E +Q    Q    +E  Q  E E E E E
|------------------|-------------------|------------------|------------------|
|------------------|-------------------|------------------|------------------|
|-9-----9-(9)---9--|-(9)-9-----9s7-7s6-|-6-----6-(6)---6--|-(6)-6--6-6s7-7s9-|
|------------------|-------------------|------------------|------------------|
|-7-----7-(7)---7--|-(7)-7-----7s5-5s4-|-4-----4-(4)---4--|-(4)-4--4-4s5-5s7-|
|------------------|-------------------|------------------|------------------|


  Csus2
  Q   E E +E  E    Q        E   Q   E  Q     Q
  |   | |  |  |    |        |   |   |  |     |
  /   / /  /  /    /        /   /   /  /     /

  Q.    E +E  E a  E  E    +E   Q   E  E  E  Q
|-----------------------|-----------------------|
|-----------------------|-----------------------|
|-9-----9-(9)-9-9s14s12-|-(12)-12--12-12s11-11S=|
|-----------------------|-----------------------|
|-7-----7-(7)-7-7s12s10-|-(10)-10--10-10s=9--9S=|
|-----------------------|-----------------------|


  Asus2
  Q   E E +E  E Q     E  Q  E Q   Q
  |   | |  |  | |     |  |  | |   |
  /   / /  /  / /     /  /  / /   /

  Q.    E +E  E Q    +E  Q  E E E Q
|------------------|------------------||
|------------------|------------------||
|-6-----6-(6)-6-6--|-(6)-6--6-6s9-9S==||
|------------------|------------------||
|-4-----4-(4)-4-4--|-(4)-4--4-4s7-7S==||
|------------------|------------------||


 Interlude
  G5
  Q   E E +E  E Q      E  Q  E Q     Q
  |   | |  |  | |      |  |  | |     |
  /   / /  /  / /      /  /  / /     /

  Q.    E +E  E E E   +E  Q  E E  E  E  E
|-------------------|---------------------|
|-------------------|---------------------|
|-4-----4-(4)s6-6s7-|-(7)-7--7-7s11-11-11-|
|-------------------|---------------------|
|-2-----2-(2)s4-4s5-|-(5)-5--5-5s=9--9--9-|
|-------------------|---------------------|


  A
   Q   E E +E E Q     E  Q  E Q   Q
   |   | |  | | |     |  |  | |   |
   /   / /  / / /     /  /  / /   /

   E E E E  E E Q    +E  Q  E E E Q
|------------------|------------------|
|------------------|------------------|
|-11s9-9-9s=7-7-6--|-(6)-6--6-6s9-9S==|
|------------------|------------------|
|--9s7-7-7s=5-5-4--|-(4)-4--4-4s7-7S==|
|------------------|------------------|


  G5
  Q   E E +E  E Q      E  Q  E Q     Q
  |   | |  |  | |      |  |  | |     |
  /   / /  /  / /      /  /  / /     /

  Q.    E +E  E E E   +E  Q  E E  E  E  E
|-------------------|---------------------|
|-------------------|---------------------|
|-4-----4-(4)s6-6s7-|-(7)-7--7-7s11-11-11-|
|-------------------|---------------------|
|-2-----2-(2)s4-4s5-|-(5)-5--5-5s=9--9--9-|
|-------------------|---------------------|


  A
   Q   E E +E E Q     E  Q  E Q   Q
   |   | |  | | |     |  |  | |   |
   /   / /  / / /     /  /  / /   /

   E E E E  E E Q    +E  Q  E E E E E
|------------------|------------------|
|------------------|------------------|
|-11s9-9-9s=7-7-6--|-(6)-6--6-6s7-7s9-|
|------------------|------------------|
|--9s7-7-7s=5-5-4--|-(4)-4--4-4s5-5s7-|
|------------------|------------------|


  C
  Q   E E +E E Q     E Q   E Q   Q
  |   | |  | | |     | |   | |   |
  /   / /  / / /     / /   / /   /

  E E E E  E E E E   E E E E E E Q
|------------------|----------------|
|------------------|----------------|
|-9-9-9-9--9-9-9-9-|-9-9-9-9-9s7-7--|
|------------------|----------------|
|-7-7-7-7--7-7-7-7-|-7-7-7-7-7s5-5--|
|------------------|----------------|


  D                          Eb
  Q     E  E  +E   E  Q       E  Q     E  Q   Q
  |     |  |   |   |  |       |  |     |  |   |
  /     /  /   /   /  /       /  /     /  /   /

  E  E  E  E  +E   E  E  E    E  E  E  E  Q   Q
|--------------------------|---------------------|
|--------------------------|---------------------|
|-7s11-11-11-(11)-11-11-11-|-11-11-11-11-12--12--|
|--------------------------|---------------------|
|-5s=9--9--9--(9)--9--9--9-|--9--9--9--9-10--10--|
|--------------------------|---------------------|


  N.C.
   S  S  S  S  S  S  E       S  S  S  S  S  S  E      S  S  S  S  S  S  E  S  S  S  S  S  S  E
|------------------------------------------------||---------------------------------------------||
|------------------------------------------------||o-------------------------------------------o||
|-14p12----14p12----12b12.5----------------------||--14p12----14p12----12-----------------------||
|-------14-------14---------14p12----14p12----12-||--------14-------14----14p12----14p12----12--||
|---------------------------------14-------14----||o----------------------------14-------14----o||
|------------------------------------------------||---------------------------------------------||


                                                                                            ~~~
   S  S  S  S  S  S  S  S  S  S  S  S  S  S  S  S    S  S  S  S  S  S  S  S  S  S  S  S  S  E.
|-------------------------------------------------|-----------------------------------------------||
|-------------------------------------------------|-----------------------------------------------||
|-14p12----14p12----14p12----14p12----14p12----14p|=12----14p12----14p12----14p12----14p12--------||
|-------14-------14-------14-------14-------14----|----14-------14-------14-------14-------14-----||
|-------------------------------------------------|-----------------------------------------------||
|-------------------------------------------------|-----------------------------------------------||


 Guitar Solo
  E7             F7E7
  Gtr IV
    S  S  E  S S E   E     S  S   S  S  S  S
    |  |  |  | | |   |     |  |   |  |  |  |
    x  x  /  x x /   /     x  /   x  x  /  /

    ~~~~~~~~~~~~~~~~~~~~
   +H               +Q.                 S  S
|--------------------------------------------|
|--------------------------------------------|
|--------------------------------------------|
|-(14)-------------(14)----------------12h14-|
|--------------------------------------------|
|--------------------------------------------|
|
| Gtr V
|   S  S  E  e   e   S   S S  S  +S  S  S  S
|--------------------------------------------|
|---x--x-15-12------12--12-x-12-(12)-x-15-12-|
|---x--x-12-12------12--12-x-12-(12)-x-12-12-|
|--------------------------------------------|
|--------------------------------------------|
|----------------0---------------------------|


                F7 E7                                     F7 E7
   S S  E  S  S  E  E    S  S   S   S  S  S   S S  E  S S  E  E     S  S   S  S  S  S
   | |  |  |  |  |  |    |  |   |   |  |  |   | |  |  | |  |  |     |  |   |  |  |  |
   x x  /  x  x  /  /    x  /   x   x  /  /   x x  /  x x  /  /     x  /   x  x  /  /

        ~~          ~~                             ~~            ~~~
   E    E  S  S  E  e    S  S   S   S  S  S   E    Q       E  S  E.        S  S  S  S
|-------------------------------------------|-----------------------------------------|
|-------------------------------------------|-----------------------------------------|
|-12---12----12-12-12----------12--------12-|-----12------12-12-12---------0--0-12-12-|
|---------14-----------------------12h14----|-----------------------------------------|
|-------------------------------------------|-----------------------------------------|
|------------------------0--0---------------|-----------------------------------------|
|
|  S S  E  e     e  S  S S  S  +S   S  S  S   S S  E  e    e  S  S  S  S  +S  S  S  S
|-------------------------------------------|-----------------------------------------|
|--x-x-15-12-------12-12-x-12-(12)--x-15-12-|-x-x-15-12------12-12--x-12-(12)-x-15-12-|
|--x-x-12-12-------12-12-x-12-(12)--x-12-12-|-x-x-12-12------12-12--x-12-(12)-x-12-12-|
|-------------------------------------------|-----------------------------------------|
|-------------------------------------------|-----------------------------------------|
|----------------0--------------------------|--------------0--------------------------|


               F7          E7                                              F7  E7
  S S  E  S  S  E            E     S  S   S   S   S  S    S S  E      S  S   E  E     S  S   S  S   S  S
  | |  |  |  |  |            |     |  |   |   |   |  |    | |  |      |  |   |  |     |  |   |  |   |  |
  x x  /  x  x  /            /     x  /   x   x   /  /    x x  /      x  x   /  /     x  /   x  x   /  /

                             ~~~~~~~~~~~~~~~~~                    ~~~~~~~                ~~~~~~~
  S S  E  S  S  S  S  a     +Q           +E       E       S E     S  +E      E  S  S  S  S  +E      E
|------------------------------------------------------|-------------------------------------------------|
|------------------------------------------------------|-15------17-(17)-------15----15-17-(17)----------|
|-0-0-12-12-12-12-12-14b16-(14)---------(14)---/16----|-------------------/16----16--------------/16----|
|------------------------------------------------------|-------------------------------------------------|
|------------------------------------------------------|-------------------------------------------------|
|------------------------------------------------------|-------------------------------------------------|
|
| S S  E  e     e            S   S S  S  +S   S   S  S    S S  E      e      e  S  S  S  S  +S  S   S  S
|------------------------------------------------------|-------------------------------------------------|
|-x-x-15-12-----------------12--12-x-12-(12)--x--15-12-|--x-x-15-----12--------12-12--x-12-(12)-x--15-12-|
|-x-x-12-12-----------------12--12-x-12-(12)--x--12-12-|--x-x-12-----12--------12-12--x-12-(12)-x--12-12-|
|------------------------------------------------------|-------------------------------------------------|
|------------------------------------------------------|-------------------------------------------------|
|---------------0--------------------------------------|---------------------0---------------------------|


                             F7    E7
   S  S  E              S  S  E     E     S  S   S  S  S  S
   |  |  |              |  |  |     |     |  |   |  |  |  |
   x  x  /              x  x  /     /     x  /   x  x  /  /

                                    ~~~
   S  S  S  a     +S   +E     S  S  Q.                 E
|----------17b19-(17)-(17)---17p15-17-----------------------|
|-15----15--------------------------------------------------|
|----16------------------------------------------------0----|
|-----------------------------------------------------------|
|-----------------------------------------------------------|
|-----------------------------------------------------------|
|
|  S  S  E              e     e     S   S S  S  +S  S  S  S
|-----------------------------------------------------------|
|--x--x-15-------------12----------12--12-x-12-(12)-x-15-12-|
|--x--x-12-------------12----------12--12-x-12-(12)-x-12-12-|
|-----------------------------------------------------------|
|-----------------------------------------------------------|
|-----------------------------0-----------------------------|


                F7   E7                                            F7 E7
   S S  E  S  S E      E     S  S   S   S  S  S    S  S  E     S S  E  E     S  S   S  S  S  S
   | |  |  |  | |      |     |  |   |   |  |  |    |  |  |     | |  |  |     |  |   |  |  |  |
   x x  /  x  x /      /     x  /   x   x  /  /    x  x  /     x x  /  /     x  /   x  x  /  /

   ~~              ~~~~~~~                            ~~                  ~~~
   Q       S  E    S  +E.       S  +S   S  E       S  E     S  E    E  S  E.        Q
|-15------15------15-(15)------15-(15)-15-------|----15----15---------15-----------15---------|
|-14---------14---------------------------14----|-14----------14---14----14--------14---------|
|--0--------------------------------------------|----------------------------------------------|
|-----------------------------------------------|----------------------------------------------|
|-----------------------------------------------|----------------------------------------------|
|-----------------------------------------------|----------------------------------------------|
|
|  S S  E  e    e      S   S S  S  +S   S  S  S    S  S  E     e    e  S  S  S  S  +S  S  S  S
|-----------------------------------------------|----------------------------------------------|
|--x-x-15-12----------12--12-x-12-(12)--x-15-12-|--x--x-15----12------12-12--x-12-(12)-x-15-12-|
|--x-x-12-12----------12--12-x-12-(12)--x-12-12-|--x--x-12----12------12-12--x-12-(12)-x-12-12-|
|-----------------------------------------------|----------------------------------------------|
|-----------------------------------------------|----------------------------------------------|
|---------------0-------------------------------|-------------------0--------------------------|


                          F7E7
           S  S  E   S  S E   E     S  S   S  S  S  S
           |  |  |   |  | |   |     |  |   |  |  |  |
           x  x  /   x  x /   /     x  /   x  x  /  /

   a      +Q        +Q       +E.       S  +E     E
|-----------------------------------------------------|
|-----------------------------------------------------|
|-14b16==(14)r=====(14)-----(14)------12-(12)---------|
|-----------------------------------------------------|
|-----------------------------------------------------|
|-----------------------------------------------------|
|
|          S  S  E   e    e   S   S S  S  +S  S  S  S
|-----------------------------------------------------|
|----------x--x-15--12-------12--12-x-12-(12)-x-15-12-|
|----------x--x-12--12-------12--12-x-12-(12)-x-12-12-|
|-----------------------------------------------------|
|-----------------------------------------------------|
|-------------------------0---------------------------|


                          F7E7
           S  S  E   S  S E  E    S  S   S  S  S  S
           |  |  |   |  | |  |    |  |   |  |  |  |
           x  x  /   x  x /  /    x  /   x  x  /  /

                                         PM---|
   a      +Q        +Q       e    s  s   E     E
|---------------------------------x--x--------------|
|-15b17==(15)r=====(15)-----------x--x--------------|
|-15b16==(15)r=====(15)-----------------------------|
|---------------------------14----------14----12----|
|---------------------------------------------------|
|---------------------------------------------------|
|
|          S  S  E   e    e  S  S S  S  +S  S  S  S
|---------------------------------------------------|
|----------x--x-15--12------12-12-x-12-(12)-x-15-12-|
|----------x--x-12--12------12-12-x-12-(12)-x-12-12-|
|---------------------------------------------------|
|---------------------------------------------------|
|-------------------------0-------------------------|


                 F7  E7                                       F7  E7
    S  S  E  S S E    E    S  S   S  S  S  S     S  S  E  S S E    E    S  S   S  S  S  S
    |  |  |  | | |    |    |  |   |  |  |  |     |  |  |  | | |    |    |  |   |  |  |  |
    x  x  /  x x /    /    x  /   x  x  /  /     x  x  /  x x /    /    x  /   x  x  /  /

                                        ~~~~~~~~~~~~                           ~~~~
    E     Q      S S  S  S S  S   S  S  E       +E     Q      S S  S  S S  S   Q
|----------------x-x--x--x-------------------|--------------------------------------------||
|---------0------x-x--x--x-x--x---x--x-------|---------0----------------------------------||
|-[12]---------------------x--x---x--x-12----|-(12)-----------x-x--x--x-x--x--12----------||
|--------------------------------------------|--------------------------------------------||
|--------------------------------------------|--------------------------------------------||
|--------------------------------------------|--------------------------------------------||
|
|   S  S  E  e   e    S  S S  S  +S  S  S  S     S  S  E  e   e    S  S S  S  +S  S  S  S
|--------------------------------------------|--------------------------------------------||
|---x--x-15-12-------12-12-x-12-(12)-x-15-12-|---x--x-15-12-------12-12-x-12-(12)-x-15-12-||
|---x--x-12-12-------12-12-x-12-(12)-x-12-12-|---x--x-12-12-------12-12-x-12-(12)-x-12-12-||
|--------------------------------------------|--------------------------------------------||
|--------------------------------------------|--------------------------------------------||
|----------------0---------------------------|----------------0---------------------------||


   Verse
    Gtr IV
    S S  E  e  e  S  S S  S   S   S  S  S   S S  E  e  e  S  S S  S   S   S  S  S  6x
||----------------------------------------|----------------------------------------||
||o-x-x-15-12----12----x-12---x--12-15-12-|-x-x-15-12----12----x-12---x--12-15-12-o||
||--x-x-12-12-15-12----x-12---x--12-12-12-|-x-x-12-12-15-12----x-12---x--12-12-12--||
||------------15--------------------------|-----------15---------------------------||
||o---------------------------------------|---------------------------------------o||
||----------------------------------------|----------------------------------------||
|
|   Gtr III
|   S S  E  e  e  S  S S  S  +S   S  S  S   S S  E  e  e  S  S S  S  +S   S  S  S  6x
||----------------------------------------|----------------------------------------||
||o-x-x-15-12----12-12-x-12-(12)--x-15-12-|-x-x-15-12----12-12-x-12-(12)--x-15-12-o||
||--x-x-12-12----12-12-x-12-(12)--x-12-12-|-x-x-12-12----12-12-x-12-(12)--x-12-12--||
||----------------------------------------|----------------------------------------||
||o---------------------------------------|---------------------------------------o||
||-------------0--------------------------|------------0---------------------------||


  S S  E  e  e  S  S S  S   S   S  S  S
|-----------------------------------------||
|-x-x-15-12----12----x-12---x--12-15-12---||
|-x-x-12-12-15-12----x-12---x--12-12-12---||
|-----------15----------------------------||
|-----------------------------------------||
|-----------------------------------------||
|
| S S  E  e  e  S  S S  S  +S   S  S  S
|-----------------------------------------||
|-x-x-15-12----12-12-x-12-(12)--x-15-12---||
|-x-x-12-12----12-12-x-12-(12)--x-12-12---||
|-----------------------------------------||
|-----------------------------------------||
|------------0----------------------------||


 Outro
  Half-Time Q=62
  Asus2                     C#
  Gtrs IV, VI
  Q  +E. S E S S +S S S S   Q  E S S E S S +S S S S
  |   |  | | | |  | | | |   |  | | | | | |  | | | |
  /   /  / / / /  / / x x   /  / / / / / /  / / x x

  W                         W
|-------------------------|-------------------------|
|-------------------------|-------------------------|
|-------------------------|-------------------------|
|-------------------------|-------------------------|
|-------------------------|-------------------------|
|-------------------------|-------------------------|


  Dopen        Dsus4Dopen   E
  Q  E S S E S S +S S S S   Q  E S S E S S +S S S S
  |  | | | | | |  | | | |   |  | | | | | |  | | | |
  /  / / / / / /  / / x x   /  / / / / / /  / / x x

  W                         W
|-------------------------|----------------------------|
|-------------------------|----------------------------|
|-------------------------|----------------------------|
|-------------------------|----------------------------|
|-------------------------|----------------------------|
|-------------------------|----------------------------|


  Asus2                     C#
  Q  +E. S E S S +S S S S   Q  E S S E S S +S S S S
  |   |  | | | |  | | | |   |  | | | | | |  | | | |
  /   /  / / / /  / / x x   /  / / / / / /  / / x x

  W                         W
|-------------------------|-------------------------|
|-------------------------|-------------------------|
|-------------------------|-------------------------|
|-------------------------|-------------------------|
|-------------------------|-------------------------|
|-------------------------|-------------------------|


  Dopen        Dsus4Dopen   E
  Q  E S S E S S +S S S S   Q  E S S E S S +S S S S
  |  | | | | | |  | | | |   |  | | | | | |  | | | |
  /  / / / / / /  / / x x   /  / / / / / /  / / x x

  W                         W
|-------------------------|----------------------------|
|-------------------------|----------------------------|
|-------------------------|----------------------------|
|-------------------------|----------------------------|
|-------------------------|----------------------------|
|-------------------------|----------------------------|


  Asus2                     C#
  Q  +E. S E S S +S S S S   Q  E S S E S S +S S S S
  |   |  | | | |  | | | |   |  | | | | | |  | | | |
  /   /  / / / /  / / x x   /  / / / / / /  / / x x

  W                         W
|-------------------------|-------------------------|
|-------------------------|-------------------------|
|-------------------------|-------------------------|
|-------------------------|-------------------------|
|-------------------------|-------------------------|
|-------------------------|-------------------------|


  Dopen        Dsus4Dopen   E
  Q  E S S E S S +S S S S   Q  E S S E S S +S S S S
  |  | | | | | |  | | | |   |  | | | | | |  | | | |
  /  / / / / / /  / / x x   /  / / / / / /  / / x x

  W                         W
|-------------------------|----------------------------|
|-------------------------|----------------------------|
|-------------------------|----------------------------|
|-------------------------|----------------------------|
|-------------------------|----------------------------|
|-------------------------|----------------------------|


  Asus2                     C#
  Q  +E. S E S S +S S S S   Q  E S S E S S +S S S S
  |   |  | | | |  | | | |   |  | | | | | |  | | | |
  /   /  / / / /  / / x x   /  / / / / / /  / / x x

  W                         W
|-------------------------|-------------------------|
|-------------------------|-------------------------|
|-------------------------|-------------------------|
|-------------------------|-------------------------|
|-------------------------|-------------------------|
|-------------------------|-------------------------|


  Dopen        Dsus4Dopen   E
  Q  E S S E S S +S S S S   Q  E S S E S S +S S S S
  |  | | | | | |  | | | |   |  | | | | | |  | | | |
  /  / / / / / /  / / x x   /  / / / / / /  / / x x

  W                         W
|-------------------------|----------------------------|
|-------------------------|----------------------------|
|-------------------------|----------------------------|
|-------------------------|----------------------------|
|-------------------------|----------------------------|
|-------------------------|----------------------------|


    Asus2                     C#
    Q  +E. S E S S +S S S S   Q  E S S E S S +S S S S
    |   |  | | | |  | | | |   |  | | | | | |  | | | |
    /   /  / / / /  / / x x   /  / / / / / /  / / x x

    W                         W
||--------------------------|-------------------------|
||o-------------------------|-------------------------|
||--------------------------|-------------------------|
||--------------------------|-------------------------|
||o-------------------------|-------------------------|
||--------------------------|-------------------------|


  Dopen        Dsus4Dopen   E
  Q  E S S E S S +S S S S   Q  E S S E S S +S S S S
  |  | | | | | |  | | | |   |  | | | | | |  | | | |
  /  / / / / / /  / / x x   /  / / / / / /  / / x x

  W                         W
|-------------------------|----------------------------||
|-------------------------|---------------------------o||
|-------------------------|----------------------------||
|-------------------------|----------------------------||
|-------------------------|---------------------------o||
|-------------------------|----------------------------||


Duration Legend
---------------
W - whole; H - half; Q - quarter; E - 8th; S - 16th; T - 32nd; X - 64th; a - acciaccatura
+ - note tied to previous; . - note dotted; .. - note double dotted
Uncapitalized letters represent notes that are staccato (1/2 duration)
Irregular groupings are notated above the duration line
Duration letters will always appear directly above the note/fret number it represents the
duration for.  Duration letters with no fret number below them represent rests.  Multi-
bar rests are notated in the form Wxn, where n is the number of bars to rest for.  Low
melody durations appear below the staff

Tablature Legend
----------------
 h   - hammer-on
 p   - pull-off
 b   - bend
 pb  - pre-bend
 r   - bend release (if no number after the r, then release immediately)
 /  - slide into or out of (from/to "nowhere")
 s   - legato slide
 S   - shift slide
 - natural harmonic
[n]  - artificial harmonic
n(n) - tapped harmonic
 ~   - vibrato
 tr  - trill
 T   - tap
 TP  - trem. picking
 PM  - palm muting

/  - tremolo bar dip; n = amount to dip
 
  - tremolo bar down
 n/  - tremolo bar up
/n  - tremolo bar inverted dip
 =   - hold bend; also acts as connecting device for hammers/pulls
 <> - volume swell (louder/softer)
 x   - on rhythm slash represents muted slash
 o   - on rhythm slash represents single note slash

Misc Legend
-----------
 |  - bar
||  - double bar
||o - repeat start
o|| - repeat end
*|  - double bar (ending)
 :  - bar (freetime)
 $  - Segno
 &  - Coda
Tempo markers - <E/E./Q/Q./H/H.> = BPM(8/16=s8/s16), where s8 = swing 8ths, s16 = swing 16ths

Lascia un commento

Facebook Auto Publish Powered By : XYZScripts.com