Dosed - Bass tab

From the Album "By the Way"
Tabbed by Tim Marti (mynameisgreat@hotmail.com)

Normal tuning

Verse: (x14 counting the variations)
This line is always used besides the variations
G-|----------------|----------------|
D-|-----4-5-----4-5|-----4-5-----7-5|
A-|-3-3-----3-3----|-5-5-----7-7----|
E-|----------------|----------------|
8th time through
G-|----------------|------------------|
D-|-----4-5-----4-5|-----4-5----------|
A-|-3-3-----3-3----|-5-5-----5/7-5----|
E-|----------------|---------------7--|
9th time through
G-|----------------|----------------|
D-|-----4-5-----4-5|-----4-5-/7--5--|
A-|-3-3-----3-3----|-5-5-----------7|
E-|----------------|----------------|
14th time through
G-|----------------|---------------|
D-|-----4-5-----4-5|-----7---------|
A-|-3-3-----3-3----|-5-5-9-5-7--7--|
E-|----------------|---------------|

Chorus1: (x1)
G-|---------4-5|-7--7--7-7--|-9--9--x-2-4|-5--4--2-|
D-|-5--5--5----|------------|------------|---------|
A-|------------|------------|------------|---------|
E-|------------|------------|------------|---------|

G-|------------|----7-------|-----------|--------------|
D-|-5--5--5-5--|------------|-2--2--2-2-|-----------2-3|
A-|------------|-5--5--5-5--|-----------|-3--3-3-3-3---|
E-|------------|------------|----------0|--------------|

G-|---------4-5|-7--7-7-7-7-7|-9--9--11-9-|-5--5-4--4-2-|
D-|-5--5--5----|-------------|------------|-----------4-|
A-|------------|-------------|------------|-------------|
E-|------------|-------------|------------|-------------|

G-|------------|------------|-----------------|-------------|
D-|-5--5--5-5h7|------------|-2--2-2-2/5-4-2-0|-------------|
A-|------------|-5--5--5-5--|-----------------|-3-3--3--3-3-|
E-|------------|----------00|-----------------|-------------|

Verse: (x7 counting the variation)
7th time through
G-|----------------|----------------|
D-|-----4-5-----4-5|-----4-5--------|
A-|-3-3-----3-3----|-5-5-----7-7-7--|
E-|----------------|----------------|

Chorus2: (x1)
G-|---------4-5|-7--7--/6-7--|-9--11--12p11-9-7|-5-5--4--4-2-|
D-|-5--5--5----|-------------|-----------------|-------------|
A-|------------|-------------|-----------------|-------------|
E-|------------|-------------|-----------------|-------------|

G-|-------------|----7-------|------9------|------5-------|
D-|-5--5--5/9-5-|------------|-------------|--------------|
A-|------------7|-5--5--5-5--|-7--7-7--7-5-|-3-3--3--3-3--|
E-|-------------|------------|-----------7-|--------------|

G-|-------4-5-6|-7--7--7-6-7|-9--11--12-11-9-76|-5--7--5-4-2|
D-|-5--5-------|------------|-------------------|------------|
A-|------------|------------|-------------------|------------|
E-|------------|------------|-------------------|------------|

G-|-----------|----7--7----|----------------|----------------|
D-|-5--5--7-5-|------------|-7-777-7-7-7-7-7|-7-7-7-7-7-7-7-7|
A-|-----------|-5--5--5----|----------------|----------------|
E-|-----------|---------3--|----------------|----------------|

G-|-----------------------|---------------------|
D-|-10-10-10-10--10-10-10-|-10-10-10-10-10-10---|
A-|-10-10-10-10--10-10-10-|-10-10-10-10-10-10---|
E-|--8--8--8--8---8--8--8-|--8--8--8--8--8--8---|

Interlude: (x1)
G-|-5--5--5-5--|-7---7---7/9-7-4--|-5--5--5-5--|-7---7----4-7/9-7-4-|
D-|----4h5--4h5|-----4h5----------|----4h5--4h5|-----4h5--5---------|
A-|------------|------------------|------------|--------------------|
E-|------------|------------------|------------|--------------------|

G-|-5--5--5-5--|-7---7---7/9-7-4--|-5--5--5-5--|-7---7---9-7-4-|
D-|----4h5--4h5|-----4h5----------|----4h5--4h5|-----4h5-------|
A-|------------|------------------|------------|---------------|
E-|------------|------------------|------------|---------------|

G-|-5--5--5-5--|-7---7-----------|
D-|----4h5--4h5|-----4h5---------|
A-|------------|---------7-7-7-7-|
E-|------------|---------5-5-5-5-|

Verse: (x4 counting the variations)
2nd time through
G-|----------------|-----------------|
D-|-----4-5-----4-5|-----4-5---------|
A-|-3-3-----3-3----|-5-5-----7-5---5-|
E-|----------------|-------------7---|
4th time through
G-|----------------|----------------|
D-|-----4-5-----4-5|-----4-5--------|
A-|-3-3-----3-3----|-5-5-----7---7--|
E-|----------------|-----------0----|

Chorus3: (x1)
G-|---------4-5|-7--7-7-/6-7--|-9--11--12-11-7-|-5--4--2-4-2|
D-|-5--5--5----|--------------|----------------|------------|
A-|------------|--------------|----------------|------------|
E-|------------|--------------|----------------|------------|

G-|-------------|----7-------|---------------|-----5-------|
D-|-5--5--5/7-5-|------------|---------------|-------------|
A-|------------7|-5--5--5-5--|-7--7-7-7-7--5-|-3---3--3-3--|
E-|-------------|------------|---------------|-------------|

G-|---------4-5|-7--7-7-/6-7--|-9--11-12-11-9--7-|-5--4--2-4-5--4|
D-|-5--5--5----|--------------|------------------|---------------|
A-|------------|--------------|------------------|---------------|
E-|------------|--------------|------------------|---------------|

G-|------------|-------------|----------------|----------------|
D-|-5---5/7--5-|-------------|-7-777-7-7-7-7-7|-7-7-7-7-7-7-7-7|
A-|-----------7|-5--5-5-5-5--|----------------|----------------|
E-|------------|-------------|----------------|----------------|

G-|-------------------------|--------------------|
D-|-10-10-10-10-10-10-10-10-|-10-10-10-10--10-10-|
A-|-10-10-10-10-10-10-10-10-|-10-10-10-10--10-10-|
E-|--8--8--8--8--8--8--8--8-|--8--8--8--8---8--8-|

Verse: (x6 counting variation)
6th time through
G-|----------------|-------------9--|
D-|-----4-5-----4-5|-----4-5-----9--|
A-|-3-3-----3-3----|-5-5-----7-7-7--|
E-|----------------|----------------|

Outro: (x1) last 2 bars slow down slightly
G-|-----------|-----------|-------------|----------------|---------|
D-|-----------|-----------|-------------|----------------|---------|
A-|-3--3--3-3-|-2--2--3-2-|-0--0---0-0-0|-0-0-0-0-0-0-0--|---------|
E-|-----------|-----------|-------------|----------------|--3------|
WP Facebook Auto Publish Powered By : XYZScripts.com