Easily

Verse
   A                        D
|------------------------------------------------|
|------------------------------------------------|
|---------------------------7-7-7-7-7-7-7-7-7----|
|--7--7--7--7--7--7-7-7-7---7-7-7-7-7-7-7-7-7----|
|--7--7--7--7--7--7-7-7-7---5-5-5-5-5-5-5-5-5----|
|--5--5--5--5--5--5-5-5-5------------------------|

   F         C A
|---------------------------|
|---------------------------|
|------------5--------------|
|--3-3-3-3-3-5-7--7--7-7-7--|
|--3-3-3-3-3-3-7--7--7-7-7--|
|--1-1-1-1-1---5--5--5-5-5--|


Next Part:

The Story of a woman.....
   C               G          F  
|----------------------------------|
|----------------------------------|
|--5-5-5-5-5-5-5-5-----------------|
|--5-5-5-5-5-5-5-5--5-5-5-5-5--3---|
|--3-3-3-3-3-3-3-3--5-5-5-5-5--3---|
|-------------------3-3-3-3-3--1---|

Calling and Calling.....
   A                G          F  
|----------------------------------|
|----------------------------------|
|----------------------------------|
|--7-7-7-7-7-7-7-7--5-5-5-5-5--3---|
|--7-7-7-7-7-7-7-7--5-5-5-5-5--3---|
|--5-5-5-5-5-5-5-5--3-3-3-3-3--1---|


Solo 1: 01:56-02:11
|---------------------------------------------------|
|---17b--15--17--19--17--15--------13---15b13------|
|---------------------------------------------------|
|---------------------------------------------------|
|---------------------------------------------------|
|---------------------------------------------------|

|---------------------------------------------------|
|---13-----12--13--15--13-------17b---15---12---13--|
|---------------------------------------------------|
|---------------------------------------------------|
|---------------------------------------------------|
|---------------------------------------------------|

Solo 2: 02:57-03:44
|-----------------------------------------------|
|---19b--18--17--18--17---13-----12--17--13-----|
|-----------------------------------------------| 
|-----------------------------------------------|
|-----------------------------------------------|
|-----------------------------------------------|
Play x2

|---17b----15---12---15---12-----10---15---12---|
|-----------------------------------------------|
|-----------------------------------------------|
|-----------------------------------------------|
|-----------------------------------------------|
|-----------------------------------------------|
Play x2

|-----------------------------------------------|
|---19b--18--17--18--17---13-----12--17--13-----|
|-----------------------------------------------| 
|-----------------------------------------------|
|-----------------------------------------------|
|-----------------------------------------------|
Play x2

|--12-15---17b----15---12---15---12-----17b15--|
|-----------------------------------------------|
|-----------------------------------------------|
|-----------------------------------------------|
|-----------------------------------------------|
|-----------------------------------------------|

|-12--15--12---17b---15---12---15---12---17b15-|
|-----------------------------------------------|
|-----------------------------------------------|
|-----------------------------------------------|
|-----------------------------------------------|
|-----------------------------------------------|

|-12--15--12------------------------------------|
|-----------------19b--18--17--18--17---13--12--|
|-----------------------------------------------| 
|-----------------------------------------------|
|-----------------------------------------------|
|-----------------------------------------------|

|---------------12-----17b-------12--17b--15----|
|--17--13---------------------------------------|
|-----------------------------------------------|
|-----------------------------------------------|
|-----------------------------------------------|
|-----------------------------------------------|

|--17--15---17--17b--15--12--10--15-15---12-15--|
|-----------------------------------------------|
|-----------------------------------------------|
|-----------------------------------------------|
|-----------------------------------------------|
|-----------------------------------------------|

|--17b--15--12--15--12--10--15--12~~~-----------|
|--------------------------------------13~~~----|
|-----------------------------------------------|
|-----------------------------------------------|
|-----------------------------------------------|
|-----------------------------------------------|

Lascia un commento

Facebook Auto Publish Powered By : XYZScripts.com