Song: Emit Remmus
Album: Californication

Intro
G|-------------------|---------------------| (x4) 
D|--------6p5h6p5h6--|--------6p5h6p5h6----| 
A|--6-8-8------------|--6-8-8--------------| 
E|-------------------|------------------6--| 

Verse
G|-------------------|---------------------| (x4) 
D|--------6p5h6p5h6--|--------6p5h6p5h6----| 
A|--8-6-6------------|--6-8-8--------------| 
E|-------------------|-------------------6-| 

G|----------------------|-----------------------| (x4) 
D|--------6p5h6p5h6-6-6-|--------6p5h6p5h6------| 
A|--8-6-6---------------|--6-8-8----------------| 
E|----------------------|-------------------6-6-| 

Chorus
G|------------------|----------------------| (x4) 
D|------------------|----------------------| 
A|--6h8-8-8-/11-11--|--6h8-8-8-/11-11------| 
E|------------------|-----------------6-6--| 

Intro (x1)
Verse
Chorus
Interlude (with some variations the 2nd time) (x2)

G|-------------|-------------|-------------|---------------| 
D|-------------|-------------|-------------|---------------| 
A|--3--3--3-3--|-------------|--1--1--1-1--|---------------| 
E|-------------|--4--4--4-4--|-------------|--1-1--1--1-1--| 

G|----------------|--------------|-------------|---------------| 
D|-------0-1-0----|--------------|-------------|---------------| 
A|--3--3-------3--|----6--5-5-3--|--1--1--1-1--|---------------| 
E|----------------|--4-----------|-------------|--1-1--1--1-1--| 

Intro (x1)
Verse
Chorus (x8)

Lascia un commento

Facebook Auto Publish Powered By : XYZScripts.com