Falling into Grace
From the Album One Hot Minute
Tabbed by C.Deppisch

  Intro:
G -------------------------------------------------------------------------
D -------------------------------------------------------------------------
A -------------2-3-2-----------------2-3---------------2-3-2---------------
E -0-2-0-2-0-5-------0-2-2--0-2-0-5--------0-2-0-2-0-5--------0-2-2---0-2-0

G ---------I
D ---------I
A ---2-----I
E -5---2---I
  Verse 1:
G -------------------------------------------------------------------------
D -------------------------------------------------------------------------
A -------------2-3-2------------------2-3--------------2-3-2---------------
E -0-2-0-2-0-5--------0-2-2---0-2-0-5------0-2-0-2-0-5--------0-2-2---0-2-0

G ---------I----------------------------------------------------------------
D ---------I----------------------------------------------------------------
A ---2-----I------------------------2-3-2------------------2-3--------------
E -5---2---I--2/122---0-2-0-2-0-5---------0-2-2---0-2-0-5-------0-2-0-2-0-5

G -------------------------------I
D -------------------------------I
A -2-3-2------------------2------I
E --------0-2-2---0-2-0-5---2----I
  Chorus:
G ----------------------------------I---------------------------------I
D ----------------------------------I---------------------------------I
A -3--2-------------3--2------------I--3--2--------------3--2--5-4-3--I
E -------0---0--X0--------0---0--X0-I--------0---0--X0----------------I
  Verse 2:
G ----------------------------------------5--------------------------------
D -------------------------------------------------------------------------
A -------------2-3-2------------------2-3----------------2-3-2-------------
E -0-2-0-2-0-5--------0-2-2---0-2-0-5-------0-2-0-2-0-5---------0-2-2---0-2

G -----------------I--------------------------------------------------------
D -----------------I--------------------------------------------------------
A -------------2---I--------------2-3-2------------------2-3----------------
E -2---0-2-0-5---2-I--0-2-0-2-0-5--------0-2-2---0-2-0-5-------0-2-0-2-0-5--

G --------------------------------I-----------------------------------------
D -----------------------------4--I-----------------------------------------
A -2-3-2-------------------2------I-------------2-3-2------------------2-3--
E ---------0-2-0-2-0-2-0-5---2----I-0-2-0-2-0-5--------0-2-0-2-0-2-0-5------
 							 '
G ------------------------------------------I------------------------------
D ----------------------------------------4-I------------------------------
A -------------2-3-2------------------2-----I-------------2-3-2------------
E -0-2-0-2-0-5--------0-2-0-2-0-2-0-5---2---I-0-2-0-2-0-5--------0-2-0-2-0-
G ------------------------------------------------------I
D ------------------------------------------------------I
A -------2-3--------------2-3-2-------------------2-----I
E -2-0-5------0-2-0-2-0-5---------0-2-0-2-0-2-0-5---2---I
  Coda :
   +  '  '       ' ' ' ' ' ' '   +  '  '       ' ' ' ' ' ' '  +  '  '
G -------4---------5-3-5-3-------------4---------5-3-5-3-----I-------4------
D ----4----------5---------5-3------4----------5---------5-3-I----4---------
A -2--------2-3------------------2--------2-3----------------I-2---------2--
E -----------------------------------------------------------I--------------

G ------------I
D ------------I
A -5-4-3------I
E ------------I
  Outro :				    '
G -------------------------------------I----------------------------------I
D -------------------------------X2----I----------------------------------I
A -3--2---------------3--2-------------I--3--2---------------3--2--5-4-3--I
E -------0---0--X0-----------0------0--I---------0---0--X0----------------I

Explanations:

/ = slide up
 = slide down
' = pop with finger
+ = slap with thumb
X = mute string

Lascia un commento

Facebook Auto Publish Powered By : XYZScripts.com