Flea Fly

Strings: E ,A ,D ,G 
Symbols explanations:
  H: hammer on  P: pull off
  : slide up   /: slide down
====================

|   
G ----------------------------------------------------------------------------------
D -----------5--7--(7)--5--(7)--5--7--5---------------------------------------------
A -----5H-7------------------------------7/-5------5H-7--5--------------------------
E --0-------------------------------------------0-----------7--0--5--0--3-5--(3)---
>                                                                                

|     
G -----------2--4--4--7-----7--9--9-12--9-13-(13)-------16----18----19-------------
D -----2-----------------9------------------------1417----17----17----17----------
A ---------------------------------------------------------------------------------
E --0-----0----------------------------------------------------------------0-------
>                                                                                

|         
G -------------------------------------------------------------------------------
D -------------------------------------------------------------------------------
A -----5--5--5--4--4--4--------------------3--2--------------------5H-7----------
E --0--------------------5--3--0--0--3--0--------0--3--0--5H-7--7----------------
>                                                                                

|   
G -----------------------------------------------------------------------------------
D --5--7--8--7-10--9--7--------------------------------------------------------------
A -----------------------(9)--7--5/-4--(3)--2-----------------------7-----9----10----
E ---------------------------------------------3--3--2--0--0--0--0-----0-----0-----0-
>                                                                                

|       
G --------9-----7-12P11------------------------------------------------------------
D -----------8----------12--9-----5H-6--3------------------------------------------
A -----------------------------7-----------5P-4--4--4--4--(4)--4-------------------
E --0--0----------------------------------------------------------5P-3--3--5-------
>                                                                                

|   
G -----------------------------------------------------7-----------7--6--4-------
D -----------------------------------------5--7--7-9-----5--7--5----------------
A -----------------5-----------------5-7----------------------------------------
E --5--3--5--5H-7-----7--7--5--3--0----------------------------------------------
>                                                                                

|                    
G -------------------------------------------------------------------------------
D --5----------------------------------------------------------------------------
A -----7--5--7--7--7--7--7--7--7--7--7--7--7--7--7--7--7-------------------------
E --------------------------------------------------------0----------------------
>                                                                                

|  THEN REPEAT THESE 2 RIFFS 2X
G -------------------------------------------------------------------------------
D -12H14-14-12H14-14-12H14-12H14-------------------------------------------------
A -------------------------------14-13-12-10-------------------------------------
E -------------------------------------------------------------------------------
>                                                                                

|   
G -------------------------------------------------------------------------------
D --12H14-14-12H14-14-12H14-14-14-12---------------------------------------------
A -----------------------------------14-13-12-10---------------------------------
E -----------------------------------------------12-10---------------------------
> 





Flea 2

* = no slap

0:00   x2
G|---9---|----------------------5h7-|-------------------5-|
D|*--7--*|----------------5-5-------|-------------5-5-----|
A|*-----*|----------5-5-7-----7-----|-------5-5-7-----7---|
E|-------|12-0-x-x-----------------|-0-x-x---------------|

0:11
G|-------------------5h7-|-------------------|
D|-------------5-5-------|-------------------|
A|-------5-5-7-----7-----|-----------5-5-5h7-|
E|-0-x-x-----------------|-0-x-x-x-x---------|

0:15
G|-------------------5h7-|-------------------5-|
D|-------------5-5-------|-------------5-5-----|
A|-------5-5-7-----7-----|-------5-5-7-----7---|
E|-0-x-x-----------------|-0-x-x---------------|

0:18
G|-------------------5h7-|---------------------|
D|-------------5-5-------|---------------------|
A|-------5-5-7-----7-----|-----------5-5-5-5-5-|
E|-0-x-x-----------------|-0-x-x-x-x-----------|

0:22                    x3
G|-----------------------|-----------|
D|---------------7---7h9-|---10---12-|
A|-----------7h9---9-----|-----------|
E|-7-7-7-7-7-------------|-x----x----|

0:29                             x7
G|--------------------------------|-----------------------|
D|-----12-10----------10----10h12-|-----12-10----------10-|
A|-----------10-10h12----12-------|-----------10-10h12----|
E|-0-x----------------------------|-0-x-------------------|

0:43
G|--------------------------------|--------------------------|
D|-----13-11----------11----11h13-|-----13-11----------13-11-|
A|-----------11-11h13----13-------|-----------11-11h13-------|
E|-0-x----------------------------|-0-x----------------------|

0:46
G|--------------------------------|-----------------------|
D|-----13-11----------11----11h13-|-----13-11----------11-|
A|-----------11-11h13----13-------|-----------11-11h13----|
E|-0-x----------------------------|-0-x-------------------|

0:50                             x3
G|--------------------------------|-----------------------|
D|-----12-10----------10----10h12-|-----12-10----------10-|
A|-----------10-10h12----12-------|-----------10-10h12----|
E|-0-x----------------------------|-0-x-------------------|

0:58                                         x3
G|--5/7-9-7-9-10-9-10-12-10-12-14--|--14b(1)-----|
D|*-------------------------------*|*-----------*|
A|*-------------------------------*|*--------12-*|
E|---------------------------------|-------------|

1:15
G|--------------------------------|-----------------------|
D|-----12-10----------10----10h12-|-----12-10----------10-|
A|-----------10-10h12----12-------|-----------10-10h12----|
E|-0-x----------------------------|-0-x-------------------|

1:19
G|--------------------------------|------------------------------|
D|-----12-10----------10----10h12-|-----12-10--------------10h12-|
A|-----------10-10h12----12-------|-----------10-10h12-----------|
E|-0-x----------------------------|-0-x----------------0-0-------|

1:22                             x3
G|--------------------------------|---------------------------|
D|-----12-10----------10----10h12-|-----12-10----------10b(1)-|
A|-----------10-10h12----12-------|-----------10-10h12--------|
E|-0-x----------------------------|-0-x-----------------------|

1:33
G|--5h7---------2-0-3---7-5-----0-3-2-----------7-0-3---3-2-0-7-5--------|
D|*-----0-2-3-0-------0-----2-3-------0-3-5-3-0-------0-----------3-2-0-*|
A|*---------------------------------------------------------------------*|
E|-----------------------------------------------------------------------|

1:54
G|----3-2-0-7-5-2-3-------7-5-2-3-2---7-5-2-0-3-2-0-------3-2-0-7-5-3-2-0--------|
D|*-0---------------0-3-2-----------0---------------3-2-0-----------------3-2-0-*|
A|*-----------------------------------------------------------------------------*|
E|-------------------------------------------------------------------------------|

2:07 x?
G|-----|---------|--9---|
D|-----|*-------*|*-7-*-|
A|-----|*-7b(1)-*|*---*-|
E|-0-0-|---------|------|

2:22                                          x3(todo)
G|-------------------5h7-|-------------------5-|
D|-------------5-5-------|-------------5-5-----|
A|-------5-5-7-----7-----|-------5-5-7-----7---|
E|-0-x-x-----------------|-0-x-x---------------|

2:32
G|-------------------5h7-|-----------------|
D|-------------5-5-------|-----------------|
A|-------5-5-7-----7-----|---------5-5h7---|
E|-0-x-x-----------------|-0-x-x-x-------5-|
WP Facebook Auto Publish Powered By : XYZScripts.com