Song:	 Fortune Faded
Album:	 Greatest Hits
Tabber:	 Dean bailey (92funkybass92)
Tuning:	 Standard tuning (G D A E)

Intro x1
G|-------------------------|-------------------------|	
D|-------------------------|-4-4-4-4-4-4-4-4-4-4-4-4-|
A|-------------------------|-------------------------|
E|-2-2-2-2-2-2-2-2-2-2-2-2-|-------------------------|
   1 & a 2 & a 3 & a 4 & a   1 & a 2 & a 3 & a 4 & a   

G|-6-6-6-6-6-6-6-6-6-6-6-6-|
D|-------------------------|
A|-------------------------|
E|-------------------------|
   1 & a 2 & a 3 & a 4 & a   

G|-11-11-11-11-11-11-11-11-11-11-11-11-|
D|-------------------------------------|
A|-------------------------------------|
E|-------------------------------------|
   1  &  a  2  &  a  3  &  a  4  &  a   

Verse x8
G|----------------------------------|
D|----------------------------------|
A|-2-2-xxxx2-2-xxxx2-2-xxxx2-2-xxxx-|
E|----------------------------------|
   1 . 2 . 3 . 4 . 1 . 2 . 3 . 4 .    

G|------------------------------------|
D|------------------------------------|
A|-5-0h5-0h5---0h5-5-0000--0000-------|
E|-------------------------------3333-|
   1 .   2 . 3 . 4 . 1 . 2 . 3 . 4 .

Chorus x1
G|-----------7~--------------------4~-44-4~--4-4--------------------|
D|-7~-77-7~------7-5~-55-5~--5-6-7---------------5~--2~------2------|
A|-------------------------------------------------------5~----4~---|
E|------------------------------------------------------------------|
   1 . 2 . 3 . 4 . 1 . 2 . 3 . 4 . 1 . 2 . 3 . 4 . 1 . 2 . 3 . 4 . 

G|-----------7~--------------------4~-44-4~-------------------------|
D|-7~-77-7~------7-5~-55-5~--5-6-7----------------------------------|
A|-------------------------------------------2-2-2---2-2-2----------|
E|------------------------------------------------------------------|
   1 . 2 . 3 . 4 . 1 . 2 . 3 . 4 . 1 . 2 . 3 . 4 . 1 . 2 . 3 . 4 . 

Verse x5

Chorus x1

Verse x2

Intro x1 




Outro x1
G|-----------7~--------------------4~-44-4~--4-4--------------------|
D|-7~-77-7~------7-5~-55-5~--5-6-7---------------5~--2~------2------|
A|-------------------------------------------------------5~----4~---|
E|------------------------------------------------------------------|
   1 . 2 . 3 . 4 . 1 . 2 . 3 . 4 . 1 . 2 . 3 . 4 . 1 . 2 . 3 . 4 .

G|-----------7~--------------------4~-44-4~--4-4--------------------|
D|-7~-77-7~------7-5~-55-5~--5-6-7---------------5~--2~------2------|
A|-------------------------------------------------------5-4---4~---|
E|------------------------------------------------------------------|
   1 . 2 . 3 . 4 . 1 . 2 . 3 . 4 . 1 . 2 . 3 . 4 . 1 . 2 . 3 . 4 .

G|-----------7~--------------------4~-44-4~--4-4--------------------|
D|-7~-77-7~------7-5~-55-5~--5-6-7---------------5~--2~--0h2h4-5-2~-|
A|------------------------------------------------------------------|
E|------------------------------------------------------------------|
   1 . 2 . 3 . 4 . 1 . 2 . 3 . 4 . 1 . 2 . 3 . 4 . 1 . 2 . 3 . 4 .

G|-----------7~--------------------4~-44-4~-------------------------|
D|-7~-77-7~------7-5~-55-5~--5-6-7----------------------------------|
A|-------------------------------------------2-2-2------------------|
E|------------------------------------------------------------------|
   1 . 2 . 3 . 4 . 1 . 2 . 3 . 4 . 1 . 2 . 3 . 4 . 1 . 2 . 3 . 4 .

      LAYOUT
Intro         x1
Verse         x8
Chorus        x1
Verse         x5
Chorus        x1
Verse         x2
Intro         x1 
Outro         x1

Lascia un commento

Facebook Auto Publish Powered By : XYZScripts.com