Funky Crime

INTRO: 

E-|-7----3----9----5----8-----------------------------------------------------|
B-|-7----3----9----5----8-----------------------------------------------------|
G-|-7----3----9----5----8-----------------------------------------------------|
D-|-6----2----8----4----7-----------------------------------------------------|
A-|-------------------------------------------------------------------------------|
E-|-----------------------------4------------------------------------------------| 


FIRST VERSE:
E-|-7-7-7-7-7-7-7-7---------------7-7-7-7-7-7-7-7---------------------------------|
B-|-7-7-7-7-7-7-7-7---------------7-7-7-7-7-7-7-7---------------------------------|
G-|-7-7-7-7-7-7-7-7---------------7-7-7-7-7-7-7-7---------------------------------|
D-|-6-6-6-6-6-6-6-6---------------6-6-6-6-6-6-6-6----------5---------------------|
A-|-7-7-7-7-7-7-7-7---------------7-7-7-7-7-7-7-7---------------------------------|
E-|-------------------------9--10-----------------------------4--x------------------------|
"Why do you do what you do.....I do what I wanna do"

CHORUS:
E-|-----------------------------|-----------------------------------------------|
B-|-----------------------------|-----------------------------------------------|
G-|-----------------------------|-----------------------------------------------|
D-|-----------------------------|-----------------------------------------------|
A-|-----------------------------|------------------------------------7-7-7----|
E-|-9/10--7/9--6----5--4--|--9/10--7/9--6-6--5--4-------------------|
"Funky Crime, Funky Crime.....Against a state of mind"

VERSE:
E-|-7-7-7-7-7-7-7-7---------------7-7-7-7-7-7-7-7---------------------------------|
B-|-7-7-7-7-7-7-7-7---------------7-7-7-7-7-7-7-7---------------------------------|
G-|-7-7-7-7-7-7-7-7---------------7-7-7-7-7-7-7-7---------------------------------|
D-|-6-6-6-6-6-6-6-6---------------6-6-6-6-6-6-6-6---------------------------------|
A-|-7-7-7-7-7-7-7-7---------------7-7-7-7-7-7-7-7----------4/5-------------------|
E-|-------------------------9--10-----------------------------4--x-------------------------|
"Hey you, mister interview.....Funk is my attitude"
"Why do you do what you do.....I do what I wanna do"
EXTRA VERSE:

E-|-9-9-9-9-9-9-9-9----------------9-9-9-9-9-9-9-9--------------------------------|
B-|-9-9-9-9-9-9-9-9----------------9-9-9-9-9-9-9-9--------------------------------|
G-|-9-9-9-9-9-9-9-9---------------9-9-9-9-9-9-9-9---------------------------------|
D-|-8-8-8-8-8-8-8-8----------------8-8-8-8-8-8-8-8--------------------------------|
A-|-9-9-9-9-9-9-9-9----------------9-9-9-9-9-9-9-9----12------------------------|
E-|------------------------11--12-----------------------------------x--12/14-----------| 

"Barriers of race.....funk it up ah-oh!" 


INTERLUDE:
E-|---------------------------|------|--------------------|-------------------------|------|--------------------|
B-|---------------------------|------|--------------------|-------------------------|------|--------------------|
G-|-----------------2--------|------|--------------------|-----------------2------|------|--------------------|
D-|-4----4--2-----------4--|--2--|--------------------|-4----4--2---------4--|--2--|--------------------|
A-|-------------4------------|------|--------------------|--------------4---------|------|----4---2----------|
E-|---------------------------|------|--0---2---5---2--|------------------------|------|-------------5---2--|
"Funky boy... 
E-|----------------------------|------|-----------------------------|
B-|----------------------------|------|-----------------------------|
G-|------------------2--------|------|-----------------------------|
D-|-4----4--2-----------4---|--2--|-----------------------------|
A-|--------------4------------|------|------------------9/--------|
E-|----------------------------|------|--BASS-----------------|
E-|---------------------------|------|---------------------------------------------------------|
B-|---------------------------|------|---------------------------------------------------------|
G-|------------------2-------|------|------------------2--1--0------------------------------|
D-|-4----4--2-----------4--|--2--|--1--2--3--4---------------4--3--2--1---------0----|
A-|--------------4-----------|------|----------------------------------------------------------|
E-|---------------------------|------|----------------------------------------------------------|
...Cause the funk is crazy" 

LAST VERSE: 
E-|-7-7-7-7-7-7-7-7-----------------7-7-7-7-7-7-7-7------------------------------|
B-|-7-7-7-7-7-7-7-7-----------------7-7-7-7-7-7-7-7------------------------------|
G-|-7-7-7-7-7-7-7-7-----------------7-7-7-7-7-7-7-7------------------------------|
D-|-6-6-6-6-6-6-6-6-----------------6-6-6-6-6-6-6-6------------------------------|
A-|-7-7-7-7-7-7-7-7----7--5/7-----7-7-7-7-7-7-7-7----4--7/5/7---------------|
E-|------------------------------------------------------------------------------------------|

"The crime is funky"

------------------------------------------------------------------------------------------------------------------------ 

You don't get it? I made a mistake? You have problems going to the washroom? 
Anything...

E-MAIL MEEEEEEEEEEEEEEEE !!!

Tabbed by Anthony M.

E-MAIL: 76752.3042@compuserve.com

THE ORGANIC ANTI-BEAT BOX PAGE - Red Hot Chili Peppers: 
http://ourworld.compuserve.com/homepage/Red_Hot_Chili_Peppers 

Lascia un commento

Facebook Auto Publish Powered By : XYZScripts.com