Funky Monks

Great song.  Lots of fun little bits.

----------------|--------------------------------------------------
---3f---3-3-3---|-----3f---------5b(6)--5--------------------------
---3f---3-3-3---|-----3f---------5b(6)--5-(3)/53----------------
------5-------5-|-3/5----53-------------------------------------
----------------|--------------------------------------------------
-3--------------|--------------------------------------------------
    ^f indicates 'fingerstyle'    ^'Quick bend'
     as it is marked; interpret
     as you will

----------------------|-----------------------0-------------------
-----3f---3-3-3-------|-----------------5b(6)-1-3-----------------
-----3f---3-3-3/53---|-----------------5b(6)---3b(4)-------------
--------5-----------5-|-3/53-------------------------------------
----------------------|-------5--31------------------------------
-1/3------------------|-------------------------------------------
                                        ^^^^Guitar two; these
                                        are quick bends also

Mark Schnitzius
University of Central Florida
schnitzi@eola.cs.ucf.edu 

Lascia un commento

Facebook Auto Publish Powered By : XYZScripts.com