Get On Top 
Californication

Tablatures de TrevWill@AOL.com

E5 Wha Wha 

e(---------------------------------:( 
B(---------------------------------:(
G(---------------------------------:( 
D(---------5-5-5-5---------5-5-5-5-:(
A(-5-7-7-7-----------5-7-7---------:(
E(---------------------------------:(

Chorus:

A5

e(-------------------------:( ---------(
B(-------------------------:( -5-5-5---(
G(-----5-5----------5------:( ---------(
D(-5-7----------5-7--------:( ---------(
A(-------------------------:( ---------(
E(-------------------------:( ---------(

E5

Get up come sit up I light but she lit up 

Chorus 

Solos - when I get time OK!!
 
E5

Comments / corrections to TrevWill@AOL.com

TrevWill@AOL.com

Lascia un commento

Facebook Auto Publish Powered By : XYZScripts.com