Get Up and Jump

G-|-------------|----6-6-6-6----|------------|-----6-6-6-6----|
D-|-2-----------|---------------|------------|----------------|
A-|------------4|-5-------------|----------4-|-5-5------------|
E-|----0--3--4--|---------------|-0--3--4----|----------------|
Reapet 
two times


Verse bass A FIGURE:
G-|----3-----3-3h4--------3-----3-3h4--------3------3-3h4---------3-----3------|
D-|4h5---4h5----------4h5---4h5----------4h5---4h5------------4h5---4h5---2-3-5|
A-|----------------------------------------------------------------------------|
E-|----------------33-----------------33------------------33-------------------|
   P   P P   P P   SS   P   P P   P P   SS  P   P P    P P   

SS  P   P P   P P P P 

VERSE BASS B FIGURE :
G-|-------------------------------------------------------------|
D-|--4h5-3-4h5-3-3p4--------------------------------------------|
A-|-------------------------------------------------------------|
E-|-----------------33------------------------------------------|
     P   P P   P P  SS
   
Chorus:
G-|---------------|----------------|----------------|-------------7-7p5--|
D-|-----5-5-5-5---|-----5-5-5-5----|-----5-5-5-5----|---5-5-5-5----------|
A-|---------------|----------------|----------------|--------------------|
E-|-5-------------|-5--------------|-5--------------|-5------------------|
Reapet four times

Coda:
G-|----------------|-------------------|
D-|----------------|-------------------|
A-|----------------|-------------------|
E-|-5---3-4-5-5----|-0--2-3--5--3-3----|

G-|---------------|----------------|---------------------|
D-|---------------|----------------|----5h7-5-7----------|
A-|---------------|----------------|------------7-5-7-5/-|
E-|-5---3-4-5-5---|-5---5-5-5-5----|-5-------------------|
WP Facebook Auto Publish Powered By : XYZScripts.com