Give It Away
Tabbed by Joel Keane (darrenferguson@i-o.net.au)
 
Intro
Bass
G I---------------------------------------------I
D I---------------------------------------------I
A I---------------------------------------------I
E I-5/15----------5/17------------------------I
    T                 T   
 
Verse
I--------------------12--------------------------------12----------I
I----------12/14---------------------------12/14-------------------I
I---0-x-----------------------x-3-0-3-0-------------------x-0-3----I
I------------------------------------------------------------------I
 
Play until "give it away now" bit then
E I--3-------5------I
      T       T
 
Back to verse then the above bit then the solo section
A I-------------10-------------------------I
E I---0-x-10/12-----------0-3-x-3----------I   
 
LIck back into verse
E I--0-10-0-9-0-7-0-5-0-4-0-3-0-2-0---I
 
Apart from all that there is on the little fills at the end which fit in the 
verse riff.
1.  G I---------12------14------12--I
    D I----14------14-------14-------I
 
2.  D I--0-7p0--5p0--4p0---I
 
3.  A I---------0--3p0--------I 
    E I--0--3-------------3---I
 
4.  Same as above
 
5. Outro 
     A I--0--3p0--5p0--6p0--7p0--9p0--10p0--12---I
 
Thats it, too easy
 
**********************************************************************
Second Version:

**********************************
Artist: Red Hot Chili Peppers	 *
Song: Give It Away		 *
Album: Blood Sugar Sex Magik	 *
Tabbed by Ice-Man		 *
E-Mail: andreasrusso@hotmail.com *
**********************************

++++++++++
/=Slide  +
h=Hammer +
++++++++++


Intro

G|----------------|----------------|----------------|----------------|
D|----------------|----------------|----------------|----------------|
A|----------------|----------------|------------0///|15\0---0///12|
E|----------------|----------------|----------------|----------------|


Verse

G|----------------|--------12\2---|----------------|----------------|
D|----------------|4///14----------|----------------|----------------|
A|0---------------|----------------|--------3-------|----0---3-------|
E|----------------|----------------|----------------|----------------|

G|----------------|--------12------|----------------|----------------|
D|----------------|4///14----------|----------------|----------------|
A|0---------------|----------------|----------------|----0---3-------|
E|----------------|----------------|----------------|----------------|

This is the base tab but sometimes there are some improvisations that I 
didn't make that play
such as:

G|----------------|--------12------|----------------|----------------|
D|----------------|4///14----------|----------------|----------------|
A|0---------------|----------------|----0---3-------|----0---3-------|
E|----------------|----------------|----------------|----------------|

or

G|----------------|--------12------|--------14------|12------12------|
D|----------------|4///14----------|----14------14--|----14------14--|
A|0---------------|----------------|----------------|----------------|
E|----------------|----------------|----------------|----------------|

or

G|----------------|--------12------|------------12--|----------------|
D|----------------|4///14----------|--------14------|----------------|
A|0---------------|----------------|----12----------|15--12--15--12--|
E|----------------|----------------|----------------|----------------|

G|--------------------------------|----------------12--------------|------------------------12------|--------------------------------|
D|--------------------------------|--------------------------------|------------12hh14--------------|--------------------------------|
A|0-------------------------------|4///////14----------------------|--------12----------------------|15------12------15------12------|
E|--------------------------------|--------------------------------|--------------------------------|--------------------------------|


Chorus

G|----------------|----------------|----------------|----------------|
D|----------------|----------------|----------------|----------------|
A|0---------------|----------------|----------------|----------------|
E|----------------|----------------|----------------|------------3---|

G|----------------|----------------|----------------|----------------|
D|----------------|----------------|----------------|----------------|
A|----------------|----------------|----------------|----------------|
E|5\-----------|----------------|----------------|------------3---|

G|----------------|----------------|----------------|----------------|
D|----------------|----------------|----------------|----------------|
A|----------------|----------------|----------------|----------------|
E|5\-----------|----------------|----------------|------------3---|

G|----------------|----------------|----------------|----------------|
D|----------------|----------------|----------------|----------------|
A|----------------|----------------|----------------|----------------|
E|5\-----------|----------------|----------------|------------3---|


Repeat Verse


Repeat Chorus


Bridge

G|----------------|----------------|----------------|----------------|
D|----------------|----------------|----------------|----------------|
A|----------------|----------------|----------------|----------------|
E|0---------------|5///12--10\2---|--------3-------|----0---3-------|


Bridge Outro

G|----------------|----------------|----------------|----------------|
D|----------------|----------------|----------------|----------------|
A|----------------|----------------|----------------|----------------|
E|0---0---10--0---|9---0---7---0---|5---0---3---0---|3---0---3---0---|

Repeat Verse

Repeat Bridge

Repeat Bridge Outro

Repeat Verse

Outro

G|----------------|--------12\2---|----------------|----------------|}
D|----------------|4///14----------|----------------|----------------|}
A|0---------------|----------------|--------3-------|----0---3-------|}
E|----------------|----------------|----------------|----------------|}
								      }
G|----------------|--------12------|----------------|----------------|}
D|----------------|4///14----------|----------------|----------------|}
A|0---------------|----------------|----------------|----0---3-------|}
E|----------------|----------------|----------------|----------------|}
								      }[x3]
G|----------------|--------12\2---|----------------|----------------|}
D|----------------|4///14----------|----------------|----------------|}
A|0---------------|----------------|--------3-------|----0---3-------|}
E|----------------|----------------|----------------|----------------|}
								      }
G|----------------|--------12------|----------------|----------------|}
D|----------------|4///14----------|----------------|----------------|}
A|0---------------|----------------|------------0---|3---0-----------|}
E|----------------|----------------|----0---3-------|--------3-------|}

G|----------------|--------12\2---|----------------|----------------|
D|----------------|4///14----------|----------------|----------------|
A|0---------------|----------------|--------3-------|----0---3-------|
E|----------------|----------------|----------------|----------------|

G|----------------|----------------|----------------|----------------|
D|----------------|----------------|----------------|----------------|
A|0---0-------0---|3---0---5---0---|7---0---9---0---|10--0---11--0---|
E|----------------|----------------|----------------|----------------|

G|----------------|----------------|----------------|----------------|
D|----------------|----------------|----------------|----------------|
A|12--------------|----------------|----------------|----------------|
E|----------------|----------------|----------------|----------------|
WP Facebook Auto Publish Powered By : XYZScripts.com