Give It Away
Album: Blood Sugar Sex Magik
Give It Away

Intro:

                     1/2        1/2   1/2   1/2   1/2    1/2

E-|-----------------------|--11----11----11----11----11-------|
B-|------------------13---|-----------------------------------|
G-|------------------11b--|-----11b---11b---11b---11b----11b--|
D-|--7---7--7--7----------|-----------------------------------|
A-|--0---0--0--0--0-------|-----------------------------------|
E-|-----------------------|-----------------------------------|
                     1/2
E-|-----------------------|-----------------------------------------------|
B-|------------------13---|-----------------------------------------------|
G-|------------------11b--|-----------------------------------------------|
D-|--7---7--7--7----------|--5--5-----5--5-----5--5-----5--5-----5--5-----|
A-|--0---0--0--0--0-------|--------3--------4--------4--------4--------4--|
E-|-----------------------|-----------------------------------------------|

Verse
                1/4                                             1/4          
            1/4
E-|----------------------------------------------|---------------------------------------------|
B-|-------------------------------------------5--|---------------------------------------------|
G-|-------7--6--5b----------------------7--8-----|--------7--6--5b-------------------7--5b-----|
D-|--7---------------5--5--5--7------7-----------|--7----------------5--5--7------7---------5--|
A-|--0-------------------------------------------|--0------------------------------------------|
E-|----------------------------------------------|---------------------------------------------| 
x3

Chorus:

E-|--------------------------------------------------|--------------------------8-----7--7--5--|
B-|--------------------------------------------------|--------------------------8--7--7--7--5--|
G-|--------------------------------------------------|-----------------------------7------------|
D-|--7--7--7--7--7--7--7--7--7--7--7--7--7--7--7--7--|--7--7--7--7--7--7--7--7------------------|
A-|--0--0--0--0--0--0--0--0--0--0--0--0--0--0--0--0--|--0--0--0--0--0--0--0--0------------------|
E-|--------------------------------------------------|------------------------------------------|

E-|--------------------------------------------------|--------------------------5------5--------5-5-----5--|
B-|--------------------------------------------------|--------------------------5------------5--5-5-----5--|
G-|--------------------------------------------------|-----------------------------7b----7b----------7b----|
D-|--7--7--7--7--7--7--7--7--7--7--7--7--7--7--7--7--|--7--7--7--7--7--7--7--7-----------------------------|
A-|--0--0--0--0--0--0--0--0--0--0--0--0--0--0--0--0--|--0--0--0--0--0--0--0--0-----------------------------|
E-|--------------------------------------------------|-----------------------------------------------------|

Guitar solo ( Backwards Guitar )

E-|-----------------------------------------------------------------------------------------|
B-|-----------------------------------------------------------------------------------------|
G-|-------------------11--12-------------------12----14---15-----14----12----14-------------|
D-|--14----12----14-----------14----12----14------------------------------------------------|
A-|-----------------------------------------------------------------------------------------|
E-|-----------------------------------------------------------------------------------------|

E-|-------------------------------------------------12-----12--|
B-|--12---------------14---12----15------14---15---------------|
G-|-------15----14---------------------------------------------|
D-|------------------------------------------------------------|
A-|------------------------------------------------------------|
E-|------------------------------------------------------------|

Guitar solo 2 ( Backwards Guitar )

                          1/2  1/2    1     1    1
E-|-------------------------------------------------------------------------------|
B-|-------------------------------------------------------------------------------|
G-|-------------------12--14b--14pb--14b--12br--12br--14--14-tr-16------12-tr-14--|
D-|-----------12--14--------------------------------------------------------------|
A-|--10-/-12----------------------------------------------------------------------|
E-|-------------------------------------------------------------------------------|

E-|---------------------|
B-|---------------------|
G-|---------------------|
D-|--14--12---12-tr-14--|
A-|---------------------|
E-|---------------------|

Outro:

E-|--------------------------------|-----------------17--17--17--17----20--20--20--20--|
B-|-----------------13---13---13---|-----------------17--17--17--17----20--20--20--20--|
G-|-----------------11b--11b--11b--|-----------------17--17--17--17----20--20--20--20--|
D-|--7----7--7--7------------------|--7----7--7--7-------------------------------------|
A-|--0----0--0--0------------------|--0----0--0--0-------------------------------------|
E-|--------------------------------|---------------------------------------------------| 
a few times

E-|---------------------|-----10---9-------8-----|
B-|---------------------|-----x----x-------x-----|
G-|-------7--6---5~~~~--|-----7----6-------5-----|
D-|--7------------------|--7---------------------|
A-|--0------------------|--0---------------------|
E-|---------------------|------------------------| a few times

E-|----------------------------------|------------------------------------------|
B-|----------------------------------|------------------------------------------|
G-|--2--2-----7----6----5--5--5--5--|--2--2-----7----6----5--5-/--17--17--17--|
D-|--2--2-----7----6----5--5--5--5--|--2--2-----7----6----5--5-/--17--17--17--|
A-|--0--0----------------------------|--0--0------------------------------------|
E-|----------------------------------|------------------------------------------| 
a few times all with slight variations

Tabbed by Oskar Augustsson
onkel44@hotmail.com

Lascia un commento

Facebook Auto Publish Powered By : XYZScripts.com