Gong Li - Bass Tab

From the Scar Tissue Single
Tabbed by Robert Petersson (redhotpage@post.netlink.se) - (http://redhotpage.hem.netlink.se)

Intro
G|----------------| (x7)
D|----------------|
A|----------------|
E|--0--0----0--0--|

G|----------------------9-9----|----------------------13-13-11-11-----|
D|-------9-11------9-11-----11-|-------9-11------9-11-------------14--|
A|----11--------11-------------|----11--------11----------------------|
E|--0---------0----------------|--0---------0-------------------------|

G|----------------------9-9----|----------------------16-16-13-13-----|
D|-------9-11------9-11-----11-|-------9-11------9-11-------------14--|
A|----11--------11-------------|----11--------11----------------------|
E|--0---------0----------------|--0---------0-------------------------|

Verse: (x2)
G|--------------------------------------------|
D|--------------------------------------------|
A|--4-4-------7-7--x7-7-----------------------|
E|-------x7-7-----------7-7--x5-5--0-0--x0-0--|

G|--------------------------------------------|
D|--------------------------------------------|
A|--4-4-------7-7--x7-7------------4-4--x4-4--|
E|-------x7-7-----------7-7--x5-5-------------|

Intro
G|----------------| (x4)
D|----------------|
A|----------------|
E|--0--0----0--0--|

G|----------------------9-9----|----------------------13-13-11-11-----|
D|-------9-11------9-11-----11-|-------9-11------9-11-------------14--|
A|----11--------11-------------|----11--------11----------------------|
E|--0---------0----------------|--0---------0-------------------------|

G|----------------------9-9----|----------------------16-16-13-13-----|
D|-------9-11------9-11-----11-|-------9-11------9-11-------------14--|
A|----11--------11-------------|----11--------11----------------------|
E|--0---------0----------------|--0---------0-------------------------|

Verse: (x2)

Intro
G|----------------| (x4)
D|----------------|
A|----------------|
E|--0--0----0--0--|

G|----------------------9-9----|----------------------13-13-11-11-----|
D|-------9-11------9-11-----11-|-------9-11------9-11-------------14--|
A|----11--------11-------------|----11--------11----------------------|
E|--0---------0----------------|--0---------0-------------------------|

G|----------------------9-9----|----------------------16-16-13-13-----|
D|-------9-11------9-11-----11-|-------9-11------9-11-------------14--|
A|----11--------11-------------|----11--------11----------------------|
E|--0---------0----------------|--0---------0-------------------------|

G|----------------------9-9----|----------------------13-13-11-11-----|
D|-------9-11------9-11-----11-|-------9-11------9-11-------------14--|
A|----11--------11-------------|----11--------11----------------------|
E|--0---------0----------------|--0---------0-------------------------|

G|----------------------9-9----|----------------------16-16-13-13-------------------|
D|-------9-11------9-11-----11-|-------9-11------9-11-------------14-14-11-11-14----|
A|----11--------11-------------|----11--------11------------------------------------|
E|--0---------0----------------|--0---------0------------------------------------0--|

-----------------
 BASS TAB CHARACTERS EXPLANATION

/     = Slide up
     = Slide down
10h11 = Hammer on from fret 10 to fret 11
11p10 = Pull off from fret 11 to fret 10
x     = Mute string
br    = Bend / Release
~10   = Vibrato on the following note
S     = Slap note
P     = Pop note

Lascia un commento

Facebook Auto Publish Powered By : XYZScripts.com