Good Time Boys
From the Album "Mother`s Milk"
Tabbed by C. Deppisch

 Intro:
   ' '  ' '  ' '  ' '  ' '  ' '  ' '  ' '  ' '    '
G -7-7--7-7--7-7--7-7--7-7--7-7--7-7--7-7--7-7-I--7------------
D ---------------------------------------------I---------------
A ---------------------------------------------I---------------
E ---------------------------------------------I-----0--3-0-5--

G ------------------------------------------------------------
D --------------------------5------5--------------------------
A ------------0-7-0-7-0-7-0----0-5--------0-7-0-7-0-7---------
E -123---0-0------------------------0-0--------------5-3--0-0

G ------------------------------------------------------------
D ---------------5------5-------------------------------------
A -0-7-0-7-0-7-0----0-5---------0-7-0-7-0-----5-7-5-----------
E -------------------------0-0------------5-7-------5-3---0-0-

G ------------------------------------------------------------
D ---------------5------5-------------------------------------
A -0-7-0-7-0-7-0----0-5--------0-7-0-7-0-7-----------0-7-0-7-0
E -------------------------0-0-------------5-3---0-0----------

G ----------------------------7-----7------I
D -----5------5-----------------5-----5----I
A -7-0----0-5--------0-7-0-7------7-----7--I
E ---------------0-0-----------------------I
  Verse 1/2: Verse 3 with little variation
G ------------------------------------------------------------
D -------------------5------5---------------------------------
A -----0-7-0-7-0-7-0----0-5----------0-7-0-7-0-7------------0-
E -0-0--------------------------0-0---------------5-3---0-0---

G -----------------------------------------------------I-------
D --------------5------5-------------------------------I-------
A -7-0-7-0-7-0-----0-5--------0-7-0-7-0------5-7-5-----I--7-7-7
E ------------------------0-0------------5-7------5-3--I-------

G ------------------------------------------I------------------
D -----5---------7--------------5---------7-I------------------
A -5-7---7-7-5-7----0-7-7-7-5-7---7-5-------I-------0-7-0-7-0-7
E ------------------------------------7-5---I--0-0-------------



G ------------------------------------------------------------
D ---5------5---------------------------------------------5---
A -0----0-5---------0-7-0-7-0-7-------------0-7-0-7-0-7-0---0-
E --------------0-0--------------5-3----0-0-------------------
					     '
G ------------------------------I------------------------------
D ---5-----------------------5--I---------------------5-----5--
A -5----------------------------I-------0-7-0-7-0-7-0---0-5----
E ------0-0---------------------I---0-0------------------------

G ------------------------------------------------------------
D ---------------------------------------5-----5-------5----5-
A -----0-7-0-7-0-7-----------0-7-0-7-0-7---0-5----7777---77---
E -0-0-------------5-3---0-0---------------------------------

G ---------------I
D ----5---5---5--I
A -77---7---7----I
E ---------------I
  Chorus: Repeat!   '
G ------------------9-------------------------------------I
D --------------------------------------------------------I
A -----X-5-7----7-----5----------X-5-7--------------------I
E -7--------------------7----7-----------3-3-3-3-3-3-3-3--I
  Coda:
G -------3----------------------------------------------------
D -5-3-----5-3---2-3------------0-----------------------------
A -----5-------5-----3-1--3-1-3---3-1-3-1------------1--3--4--
E -----------------------------------------3-1----3-----------

G -------3---------------------I
D ----3------------------------I
A -5--------5--4--3--1---------I
E ----------------------1-3----I
    Chorus before ending:
     ' '     ' '     ' '
G -----------------------------------------I
D ---9-9-----2-2-----9-9-------------------I
A -----------------------------------------I
E -7-------0-------7------3-3-3-3-3-3-3-3--I
    Outro:
G -9-7---12--9-7----8-7------------4-----------------I
D -----9---------9------7-5--7-5-7---7-5-7-5---------I
A -------------------------------------------7-5-7---I
E ---------------------------------------------------I

Explanations:
' = pop with finger
X = mute string
 = slide
WP Facebook Auto Publish Powered By : XYZScripts.com