Grand Pappy Du Plenty - Bass Tab

From the album Red Hot Chili Peppers
Tabbed by Robert Petersson (redhotpage@post.netlink.se) - (http://redhotpage.hem.netlink.se)

No. 1 G|---------------------|------------------------|
      D|---------------------|------------------------|
      A|---------------------|------------------------|
      E|--2-x2---------------|--2-x2------------------|

No. 2 G|-----------12f13--------|
      D|-----------12f13--------|
      A|--0-----0---------------|
      E|----0-2-----------------|

No. 3 G|----------------------|--------------------------|
      D|------5^--------------|--------------------------|
      A|----------------------|--------------------------|
      E|--2-2-----------------|--5--5--5--5----5-5-5--5--|

No. 4 G|----------------------|
      D|----------------------|
      A|----------------------|
      E|--5--5--2-------------|

      (Sounds like flea´s using some kind of echo effect where (x) is the echo)  
No. 5 G|---------------------------------------------|
      D|---------------------------------------------|
      A|---------------------------------------------|
      E|--3-5-(5)---3-5-5-(5)---3-5-(5)---3-5-5-(5)--|

No. 6 G|--------------------------------------5-------------------|
      D|----------------------------------------5-----------------|
      A|----------------------3-(3)---3-(3)--------3-(3)---3-(3)--|
      E|--1-(1)---1-(1)-------------------------------------------|

No. 7 G|----------------------------------------------------------|
      D|----------------------------------------------------------|
      A|----------------------3-(3)---3-(3)----3-(3)--------------|
      E|--1-(1)---1-(1)--------------------------------3---1------|

      (No bass for a while)

Play No. 1 - No. 5 once then...

No. 8 G|-------------------------------------------------------------------|
      D|-------------------------------------------------------------------|
      A|----------------------------------3-3-3-3-3-3-3-3-3-3-3-3-3-3-3-3--|
      E|--1-1-1-1-1-1-1-1-1-1-1-1-1-1-1-1----------------------------------|

No. 8 G|-----------------------------------|
      D|-----------------------------------|
      A|--3-3-3-3-3-3-3-3-3-3-3-3-3-3-3-3--|
      E|-----------------------------------|

Play No. 5 once then...

No. 9 G|-------------------------------------------------------------------|
      D|-------------------------------------------------------------------|
      A|----------------------------------3-3-3-3-3-3-3-3-3-3-3-3-3-3-3-3--|
      E|--1-1-1-1-1-1-1-1-1-1-1-1-1-1-1-1----------------------------------|

      G|----------------------------------------------|
      D|----------------------------------------------|
      A|--3-3-3-3-3-3-3-3-----------3-3-3-3-fade out--|
      E|-------------------3-----1--------------------|

That´s it! Probably not perfect, but it´s what I got for it.      	  

-------------------
 BASS TAB CHARACTERS EXPLANATION

/     = Slide up
     = Slide down
10h11 = Hammer on from fret 10 to fret 11
11p10 = Pull off from fret 11 to fret 10
x     = Mute string
br    = Bend / Release
~10   = Vibrato on the following note
S     = Slap note
P     = Pop note

Lascia un commento

Facebook Auto Publish Powered By : XYZScripts.com