Green Heaven 

INTRO:

e-|-------------------|
B-|-------------------|
G-|-------------------|
D-|-0h2--6--5--2------|
A-|-------------------|
E-|-------------------|


e|---3-3-3-3----------------|
B|---3-3-3-3----------------|
G|--------------------------|
D|--------------x-6--5--2---|
A|--------------------------|
E|--------------------------|

Start of next Verse:

e|---3-3-3-3----------------------------------------------|
B|---3-3-3-3----------------------------------------------|
G|--------------------------------------------------------|
D|---------------6--5--5----5p3------3----------5p3-----3-|
A|-------------------------------5-------------------5----|
E|-----------------------------------------3--------------|


e|--------------------------|
B|-------------------5---5--|
G|-------------------5---5--|
D|------5p3-----3----5---5--|
A|-----------5--------------|
E|-3------------------------|

Next Verse:

e|--x--x--x--x--x--x-----|
B|--x--x--x--x--x--x-----|
G|--x--x--x--x--x--x-----|
D|--x--x--x--x--x--x-----|
A|-----------------------|
E|-----------------------|
					      ^^^^^^

e|-----------------------------------------------------------------|
B|-----------------------------------------------------------------|
G|--------------------------------------------------------------12-|
D|-----------------------------------------------------------------|
A|-----------------------------------------------------------------|
E|--5-5-5-5-6---5-5-5-5-6---5-5-5-5-6---5-5-5-5-6---5-5-5-5-6------|

Then go back to first Verse.
Some of this might sound a bit dodgy OK.
Tabbed By Alexander Kinghorn

Lascia un commento

Facebook Auto Publish Powered By : XYZScripts.com