Havana Affair

Intro
 
G---------------------------------------|
D---------------------------19----------|
A--14---14-14---14-14---17--------------| X2
E------------------------------17-------|     

Verse
G-------------------------------------|--------------------------------------|
D-------------------------------------|--------------------------------------|
A--2---2-4-5-----5-4-2-------2-4------|-2---2-4-5-5--5/7---5-2-------2-4-----|
E------------3---------5---5-----2---5|------------------------5---5-----2---|

Bridge:
G--------------------------------|-----------------------------|--------------------------|
D---------------5-5h7--5---------|-----------------------------|-------16-16-16-----------|
A-------------5----------5-5-----|-14--14-14--14-14-----17-----|-14-----------------17----|
E-3---3-2---3----------------2---|-------------------15----14--|-----------------15----14-|

Chorus
G--------------------|
D--------------------|
A---------------5-7--|
E-/7--7-7--7-7-------|

Last verse
G----------------------------------------|------------------------------------|
D----------------------------------------|------------------------------------|
A--2---2-4-5---5/7---5-2-------2-4-------|-2---2-4-5-5--5/7---5-2-------2-4---|
E------------3-----------5---5-----2---5-|------------------------5---5-----2-|

Lascia un commento

Facebook Auto Publish Powered By : XYZScripts.com