Higher Ground
By: STAFF1209@aol.com

intro and most of song
g------------------------------------------------
d-------2-------------------5---------------7---  pluck
a------------------------------------------------
e-0-0----0--------3-3------------5-5--------   slap

flea does that many of times and switches to this and does it 2x's
g---------------------------2---------------4----------pluck
d-----------4------------------------------------------pluck
a-------------------0-0------------2-2--------------slap
e---2-2------2------------------------------------slap
WP Facebook Auto Publish Powered By : XYZScripts.com