Hollywood

Riff

e-|---------------------------------------|
B-|---------------------------------------|
G-|---------------------------------------|
D-|--10--8--8-----------------------------|
A-|------------8--8--10---10-10-----------|
E-|---------------------------------------|

Refrain

e|---------------|
B|---------------|
G|--8------------|
D|-----8---10----|
A|---------------|
E|---------------|

Tablatures de Joe Le Tordu.

Lascia un commento

Facebook Auto Publish Powered By : XYZScripts.com