How Strong
tabbed by crazytom
deathtone@wanadoo.fr

Verse:
--------------------------------------|-------------------------------------
-----------6--6-6----6-6----6-6---6---|-----------6-6---6-6/8---6-6-6-6-8---
--------------------------------------|-------------------------------------
-------------------7-----7------7-----|-------------------------------------
---5----------------------------------|---5---------------------------------
-----5-8------------------------------|-----5-8-----------------------------
The rest of verse is just variations of that.

Chorus:
   G   F   G   F   G   F   C
-------1-------1-------1---0---
---3---1---3---1---3---1---1---
---0---2---0---2---0---2---0---
---0---3---0---3---0---3---2---
---2---3---2---3---2---3---3---
-------1-------1-------1-------

Solo:
-------------------------------------------------------------------------------------
-------------------------------------------------------------------------------------
--------------------7--7---------------------------5--5--5---------------------------
---10/--7--7--7--7--7--7----10/--7--7--7--7--7--7-------------10/--7--7--7--7--7--7--
-------------------------------------------------------------------------------------
-------------------------------------------------------------------------------------

Lascia un commento

Facebook Auto Publish Powered By : XYZScripts.com