Song: I feel love
Album: Live in Hyde Park

Riff 1: 24x

G:|----55-33-55-|
D:|-------------|
A:|-33----------|
E:|-------------|


Riff 2: 8x

G:|----88-66-88-|
D:|-------------|
A:|-66----------|
E:|-------------|


Riff 3: 8x

G:|----1010-88-1010-|
D:|-----------------|
A:|-88--------------|
E:|-----------------|


Riff 4: 16x

G:|------1212-1010-1212-|
D:|---------------------|
A:|-1010----------------|
E:|---------------------|



Ending 2x

G:|----55-33-55----55-33-55----88-66-88----88-66-88-|
D:|-------------------------------------------------|
A:|-33----------33----------66----------66----------|
E:|-------------------------------------------------|


G:|----1010-88-1010----1010-88-1010------1212-1010-1212------1212-1010-1212-|
D:|-------------------------------------------------------------------------|
A:|-88--------------88--------------1010----------------1010----------------|
E:|-------------------------------------------------------------------------|


End on

G:|----|
D:|----|
A:|-3~-|
E:|----|
WP Facebook Auto Publish Powered By : XYZScripts.com