I Like Dirt 
Californication

Intro

Bm/A, Bm x4

Bass

G-------4---------4---2-3-4--- 
D-----------------------------
A-0-2-------0-2---------------
E-----------------------------

Bm(Bm7)

Some come up and some come young
Live to love and give good tongue
Sit down get down in the sun
Rocket to the woman is on the one 

Chorus:

I like dirt I like dirt I like dirt


The earth is made of dirt and wood
And I'd be water if I could
Live in a dream
In your stream
Live in a dream 

Some come up and some come young
Live to love and give good tongue
Sit down get down in the sun
Rocket to the woman is on the one 
 

Chorus 2:

Bass

A-5---2-2---5---2-2---
E---------------------

I like dirt I like dirt
I like dirt I like dirt

Muted guitar

G-7---4-4---7---4-4---
D--------------------- 

 Bm(Bm7)

Some come slow and overload
Must roll over when you're told
Let's unzip and let's unfold
A letter to the pet better get it to go 

Chorus 1

Space is made of everything
And I'd be fire that I bring
Live in a dream
In your spring
Live in a dream 

Interlude 

Guitar, 1st part 3 times. 2nd part 4th time

e-----------------( ---------------------( 
B-4---------------( -8-------------------(
G---3-5-----------( ---8-10----8---------( 
D-------3-5-1-3---( --------10---8-10----(
A---------------3-( ------------------10-(
E-----------------( ---------------------(

 
Bm(Bm7)

Some come slow and overload
Must roll over when you're told
Let's unzip and let's unfold
A letter to the pet better get it to go 


Chorus 2


Solo 

Guitar 1 - distorted

e(-------------------------------------------------------( 
B(-------------------------------------------------------(
G(---------------------------------------7/9-7-9---/-(11)( 
D(---------------5---5--7(9)-7--5--7--5------------------(
A(-------5-7-------7-------------------------------------(
E(-5-6-7-------------------------------------------------(

 

Guitar 1 - distorted with wah (2nd part fast!)

e(--------------------------):---------7------:( 
B(--------------------------):-------7---10-7-:(
G(------------7-------------):-9/(11)---------:( 
D(-7---9-------------9------):----------------:(
A(--------------------------):----------------:(
E(--------------------------):----------------:(
 

Bm(Bm7)

Some come up and some come young
Live to love and give good tongue
Sit down get down in the sun
Rocket to the woman is on the one 


Chorus 2

Some come up and some come young
Live to love and give good tongue
Sit down get down in the sun
Rocket to the woman is on the one 

 
Comments / corrections to TrevWill@AOL.com
TrevWill@AOL.com

Lascia un commento

Facebook Auto Publish Powered By : XYZScripts.com