I Want You Back - Bass Tab

By the Jackson Five
From RHCP live performance
Tabbed by Robert Petersson (redhotpage@post.netlink.se)

Intro
G|------------------------------------------|
D|-------x1-x3----------x1-2-3--------------|
A|-------------4----x4---------3-4-----6----|
E|--4------------------------------4-6---4--|

Verse
G|------------------------------------------| (x2)
D|-------x1-x3----------x1-2-3--------------|
A|-------------4----x4---------3-4-----6----|
E|--4------------------------------4-6---4--|

then..

G|-------------------------------------| (x2)
D|--6-5-3----------x1-2-3--------------|
A|--------6-4-3-1---------3-4-----6----|
E|----------------------------4-6---4--|

Last bar
G|-----------|
D|-----------|
A|-----------|
E|--4-4-4-4--|

-----------------
 BASS TAB CHARACTERS EXPLANATION

/     = Slide up
     = Slide down
10h11 = Hammer on from fret 10 to fret 11
11p10 = Pull off from fret 11 to fret 10
x     = Mute string
br    = Bend / Release
~10   = Vibrato on the following note
S     = Slap note
P     = Pop note

Lascia un commento

Facebook Auto Publish Powered By : XYZScripts.com