Instrumental #1
Scar Tissue (Single)

Tabber: crazytom
deathtone@wanadoo.fr

Main riff:
---------------------------12-10-----------------
---10-----13-12---8h10-----------13--------------
------------------------------------10-----------
-----------------------------------------10h12---
-------------------------------------------------
-------------------------------------------------

Riff 2:
---12--12--12--12--15--15--15--15--12---
----------------------------------------
----------------------------------------
----------------------------------------
----------------------------------------
----------------------------------------

Variations:
-------------------------------------|----------
------13-12--8h10------13-12--10-----|-----10---
---9---------------------------------|---9------
-------------------------------------|----------
-------------------------------------|----------
-------------------------------------|----------

Lascia un commento

Facebook Auto Publish Powered By : XYZScripts.com