Jungle Men

Intro 

e-|---------------------------------------|
B-|---------------------------------------|
G-|--10-10-10----------10-10-10--9--8-----|
D-|--10-10-10--11--13--10-10-10--------12-|
A-|--------------------9--9--9------------|
E-|---------------------------------------|


e|---- --- -------|
B|---- --- -------|
G|---- --- -7--9--|
D|-4-- -4- -7--9--|
A|-4-- -4- -5--7--|
E|-0-- -2- -------|


Pont :

e|--- 
B|--- 
G|-9- 
D|-9- 
A|-7- 
E|--- 


Fin :

e|---- --- --------------------|
B|---- --- --------------------|
G|---- --- --------------------|
D|-4-- -4- -7--2---2---4-------|
A|-4-- -4- -7--2---2---4-------|
E|-0-- -2- -5----------2-------|

Tablatures de Joe Le Tordu.

Lascia un commento

Facebook Auto Publish Powered By : XYZScripts.com