Leverage of space 

Intro/Verse 6x (play this fast, there are many minor variations)

G:|--------12----12--------12----12---------12-----12---------12-|
D:|-14-14-----14-----14-14----14-----12--12----12------12--12----|
A:|--------------------------------------------------------------|
E:|--------------------------------------------------------------|

G:|--------12----12---------12----12-----------14----14--------14------14-|
D:|-10-10-----10-----10-10-----10------12--12----12-----12--12-----12-----|
A:|-----------------------------------------------------------------------|
E:|-----------------------------------------------------------------------|

Interlude/Chorus 4x

G:|----------16-16-16-19-19-19-16-19-19-21-21----------14-14-14-21-21-21----------------------|
D:|-14-14-14----------------------------------12-12-12-------------------19-19-19-------19-19-|
A:|-------------------------------------------------------------------------------17-17-------|
E:|-------------------------------------------------------------------------------------------|

G:|-------------------21-21-21----------------------12-12-12-14-14-14-17-17-17-14-14-14-19-19-17-17-|
D:|----------17-17-17----------17-17-17-------17-17-------------------------------------------------|
A:|-15-15-15----------------------------15-15-------------------------------------------------------|
E:|-------------------------------------------------------------------------------------------------|


Verse 3x


Beginning of 2nd Interlude 1x

G:|----------16-16-16-19-19-19-16-19-19-21-21----------16-16-16-19-19-19-16-19-19-21-21-|
D:|-14-14-14----------------------------------14-14-14----------------------------------|
A:|-------------------------------------------------------------------------------------|
E:|-------------------------------------------------------------------------------------|


Chorus 2x

Verse 3x

Chorus 3x


End on

G:|----|
D:|----|
A:|----|
E:|-12-|
WP Facebook Auto Publish Powered By : XYZScripts.com