Lovin'and Touchin
From the Album "Freaky Styley"
Tabbed by C.Deppisch
   
   Verse: 
G |-4---4----5---5----7---7----5---5----I 
D |--5---5----5---5----7---7----5---5---I 
A |---5---5----5---5----5---5----5---5--I 
E |-------------------------------------I 

G |-4---4----5---5----7---7----5---5----I 
D |--5---5----5---5----5---5----5---5---I 
A |---5---5----5---5----5---5----5---5--I 
E |-------------------------------------I 
    
G |-6---6----7---7----9---9----7---7----I 
D |--7---7----7---7----7---7----7---7---I 
A |---7---7----7---7----7---7----7---7--I 
E |-------------------------------------I 

G |-6---6----7---7----9---9----7---7----I 
D |--7---7----7---7----7---7----7---7---I 
A |---7---7----7---7----7---7----7---7--I 
E |-------------------------------------I 
  Ending:
G |--12----12----12----12----12----12----12----12------6---I 
D |----12----12----12----12----12----12----12----12--------I 
A |------12----12----12----12----12----12----12----12------I 
E |--------------------------------------------------------I 

Lascia un commento

Facebook Auto Publish Powered By : XYZScripts.com