Make You Feel Better
Played in bar chords

Verse:
E minor B minor C major G major

Chorus:
G major D major E minor C major

Solo:

e -----14-15-/-17b19rb17-----|
B -15--------/---------------|
G -----------/---------------|
D -----------/---------------|
A -----------/---------------|
E -----------/---------------|

e ----14--15-/-----------------|
B -15--------/---15b17 b17 b17-|
G -----------/-----------------|
D -----------/-----------------|
A -----------/-----------------|
E -----------/-----------------|


e -----14-15-/-17b19rb17-----|
B -15--------/---------------|
G -----------/---------------|
D -----------/---------------|
A -----------/---------------|
E -----------/---------------|


e -----------/------------/---------------------/-------------17-/
B -15--13-12-/-12h13p12---/---------------------/----------------/
G -----------/---------12-/-14b16rb14--14b16rb14/-12-------------/
D -----------/------------/---------------------/----------------/
A -----------/------------/---------------------/----------------/
E -----------/------------/---------------------/----------------/

Lascia un commento

Facebook Auto Publish Powered By : XYZScripts.com